Tinie Tempah - Written In The Stars tab

Written In The Stars  Tinie Tempah feat. Eric Turner

Tuning: STANDARD
Website: www.youtube.com/guitarismijnleven
Tabbed by: guitarismijnleven (Mijnleven)

This is my first proper TAB and is 100% correct.  Please don't be harsh...

e|-----10--10--10--8~~~---------10--10--10---8~~~-----------------|
B|----------------------------------------------------------------|
G|----------------------------------------------------------------| X2
D|----------------------------------------------------------------|
A|----------------------------------------------------------------|
E|----------------------------------------------------------------|


e|-12~~~----12-10-10-12-13~-----13-12-10-8-8~--12-10-10-8-10------|
B|----------------------------------------------------------------|
G|----------------------------------------------------------------|
D|----------------------------------------------------------------|
A|----------------------------------------------------------------|
E|----------------------------------------------------------------|


e|-12-10-8~~~-----------------------------------------------------|
B|----------------------------------------------------------------|
G|----------------------------------------------------------------|
D|----------------------------------------------------------------|
A|----------------------------------------------------------------|
E|----------------------------------------------------------------|

e|-12~~~----12-10-10-12-13~---17-17-15-13-12----------------------|
B|----------------------------------------------------------------|
G|----------------------------------------------------------------|
D|----------------------------------------------------------------|
A|----------------------------------------------------------------|
E|----------------------------------------------------------------|


e|-12-12-12-15-15~--------20-19-20-19-17~~~~----------------------|
B|----------------------------------------------------------------|
G|----------------------------------------------------------------|
D|----------------------------------------------------------------|
A|----------------------------------------------------------------|
E|----------------------------------------------------------------|
Tap to rate this tab
 
# A B C D E F G H I J K L M N O P Q R S T U V W X Y Z