Song name
# A B C D E F G H I J K L M N O P Q R S T U V W X Y Z

Tinie Tempah - Invincible tab

Intro riff
E-------------4-------------6--------------|
A-3-1-3-1-3------6-3-6-3-6-----6-5-3-1-----|
D-----------1--------------5---------------|    x2
G------------------------------------------|
B------------------------------------------|
e------------------------------------------|

Chords for verse

Aahh yeah they said we shouldn't, C
Yeah they said we wouldn't, G#
Aahh look where we are, D#
We've done what they thought we couldn't. A#

Piano bit over verse chords

E------------------------|
A------------------------|
D---5--5------5--5-------|    x8
G--5--5--5---3--3--3-----|
B-4--4--4---4--4--4------|
e------------------------|

Chorus Riff

E-------------4-------------6--------------|
A-3-1-3-1-3------6-3-6-3-6-----6-5-3-1-----|
D-----------1--------------5---------------|    x4
G------------------------------------------|
B------------------------------------------|
e------------------------------------------|

Bridge

E------------------------|
A------------------------|
D---5--5------5--5-------|    x4
G--5--5--5---3--3--3-----|
B-4--4--4---4--4--4------|
e------------------------|

Layout:

Intro
Verse
Chorus
Verse 2
Chorus 2
Bridge
Chorus
Tap to rate this tab
 
# A B C D E F G H I J K L M N O P Q R S T U V W X Y Z