Song name
# A B C D E F G H I J K L M N O P Q R S T U V W X Y Z

Tiny Masters Of Today - Radio Riot tab

Tiny Masters of Today
Radio Riot
Standard Tuning: EADGBE
Tabbed By: Blink Day 4 Eva

this is a really simple song..but its fun to play.


(DISTORTED)
e|-------------------------------------------------------------------------|
B|-------------------------------------------------------------------------|
G|-------------------------------------------------------------------------|
D|--14---------------------------------------------------------------------|
A|--14------let this ring for a while.-------------------------------------|
E|--12---------------------------------------------------------------------|


then play this really distorted..
e|----------------------------------------------------------------|
B|----------------------------------------------------------------|
G|----------------------------------------------------------------|
D|----------------------------------------------------------------|
A|--14-12-----12-12------11-11---12--12--12------------------|    play this
E|--12-12-----10-10------9--9----10--10--10------------------|    8 times.


(DISTORTED)
e|-------------------------------------------------------------------------|
B|-------------------------------------------------------------------------|
G|-------------------------------------------------------------------------|
D|--14---------------------------------------------------------------------|
A|--14------let this ring for a while.-------------------------------------|
E|--12---------------------------------------------------------------------|



e|----------------------------------------------------------------|
B|----------------------------------------------------------------|
G|----------------------------------------------------------------|
D|----------------------------------------------------------------|
A|--14-12-----12-12------11-11---12--12--12------------------|    
E|--12-12-----10-10------9--9----10--10--10------------------|
play this once..then pause..then play again..then pause..then play again.



e|----------------------------------------------------------------|
B|----------------------------------------------------------------|
G|----------------------------------------------------------------|
D|----------------------------------------------------------------|
A|--14-12-----12-12------11-11---12--12--12------------------|    
E|--12-12-----10-10------9--9----10--10--10------------------| 4 times.


e|----------------------------------------------------------------|
B|----------------------------------------------------------------|
G|----------------------------------------------------------------|
D|----------------------------------------------------------------|
A|--14-12-----12-12------11-11---12--12--12------------------|  
E|--12-12-----10-10------9--9----10--10--10------------------|
once then pause then do this again then pause. and come come back with:

then end the song like this.
e|----------------------------------------------------------------|
B|----------------------------------------------------------------|
G|----------------------------------------------------------------|
D|----------------------------------------------------------------|
A|--14-12-----12-12------11-11---12--12--12------------------|    
E|--12-12-----10-10------9--9----10--10--10------------------| 8 times.

and thats pretty much it..enjoy..

the bands official website is:
www.tinymasters.net
Tap to rate this tab
# A B C D E F G H I J K L M N O P Q R S T U V W X Y Z