Song name
# A B C D E F G H I J K L M N O P Q R S T U V W X Y Z

Tiny Moving Parts - Clouds Above My Head tab

-------------------------------------------------------------------------------
 Clouds Above My Head - Tiny Moving Parts
-------------------------------------------------------------------------------
Tabbed by: i3ugga

This is entirely tapped except for the harmonics towards the end
of the lick. There is also something Dylan does with harmonics
and the strings at the nut of the guitar, but it seems to only
work with his guitar.

Clouds Above My Head guitar lick
Tuning:DAEAC#E, NO CAPO

|-------------12p0----------12-|--------------------|
|------------------------------|--------------------|
|------------------7h12p0h7----|--------7---2s4s2s0-|
|----12p0h2h5------------------|--------------------|
|------------------------------|--------------------|
|--4---------------------------|-0--2S4---0---------|

|---------------12p0----------12-|
|--------------------------------|
|-(0)----------------7h12p0h7----|
|------12p0h2h5------------------|
|--------------------------------|
|--4-----------------------------|

|---------------------||
|------------+5+--+7+-||
|------------+5+--+7+-||
|---------------------||
|---------------------||
|-0--2S4--------------||



************************************

| /   slide up
| \   slide down
| h   hammer-on
| p   pull-off
| ~   vibrato
| +   harmonic
| x   Mute note
| b   Bend
| pb  Pre-bend
| br  Bend release
| pbr Pre-bend release
| brb Bend release bend

************************************
Tap to rate this tab
 
# A B C D E F G H I J K L M N O P Q R S T U V W X Y Z