Song name
# A B C D E F G H I J K L M N O P Q R S T U V W X Y Z

Tiny Tim - Strawberry Tea tab

Strawberry Tea... this song is so pretty!

Verse: (this small tab part isn't played on guitar,
well none of the song has guitar, so just enjoy it!)
Bbmaj7 Emaj7
-5-5-8------20-|
-------8---20--|
---------------|
---------------|
---------------|
---------------|

Eb  Fm  Abmaj7 Gm  Cm
Eb  Fm  Abmaj7 Gm  Cm

Chorus:
Ab  Eb  Ab  Eb  B  Eb  Bb
C   (on C play):
----------------15-15-17-18-|
------15-17-17-18-----------|
-17-17----------------------|
----------------------------|
----------------------------|
----------------------------|

Verse:
Bbmaj7 Emaj7
-5-5-8------20-|
-------8---20--|
---------------|
---------------|
---------------|
---------------|

Eb  Fm  Abmaj7 Gm  Cm
Eb  Fm  Abmaj7 Gm  Cm

Chorus:
Ab  Eb  Ab  Eb  B  Eb  Bb
C   (on C play):
----------------15-15-17-18-|
------15-17-17-18-----------|
-17-17----------------------|
----------------------------|
----------------------------|
----------------------------|

Interlude:
Bbmaj7 Emaj7
-5-5-8------20-|
-------8---20--|
---------------|
---------------|
---------------|
---------------|

Cm  Gm  Fm  Cm7
Cm  Gm  Fm  Cm7
Cm  Eb  Fm  Cm7
Cm  Gm  Fm  Cm7
Cm  Gm  Fm  Cm7
Cm  Gm  Fm  Cm7
Cm  Eb  Ab  Bb
Cm  Eb  F   C

Verse:
Bbmaj7 Emaj7
-5-5-8------20-|
-------8---20--|
---------------|
---------------|
---------------|
---------------|

Eb  Fm  Abmaj7 Gm  Cm
Eb  Fm  Abmaj7 Gm  Cm

Chorus:
Ab  Eb  Ab  Eb  B  Eb  Bb
C (on C play):
----------------15-15-17-18-|
------15-17-17-18-----------|
-17-17----------------------|
----------------------------|
----------------------------|
----------------------------|

Ending:
Bmaj7   Emaj7
(Then a beautiful cacophony of sound comes
along as you get drowned by a big psychedelic sea of
strawberry tea!)

That's it.
Tap to rate this tab
 
# A B C D E F G H I J K L M N O P Q R S T U V W X Y Z