Song name
# A B C D E F G H I J K L M N O P Q R S T U V W X Y Z

Tiny Vipers - On This Side chords

Highlighted       Show chord diagrams
Lyrics are a little off. Listen to the song to get the strumming pattern and ritardandos.

A Note for the Tabbing:
I used (Ap) for "A - Pentatonic Neutral" which is played with all the strings open.

The Website for Tiny Vipers is: http://www.myspace.com/tinyvipersss
Their signing label can be found here: http://www.subpop.com/

--------------------------------------------------------------------------------------------------

CAPO VIII - (Chords relative to capo)


INTRO:

e|-------------0-00000-0000/0-00000-00000--0--0--0--0--0----------------------|
B|-------------0-00000-0000/0-00000-00000--0--0--0--0--0----------------------|
G|-------------0-00000-0000/0-00000-00000--0--0--0--0--0----------------------|
D|-------------0-00000-0000/0-00000-00000--0--0--0--0--0----------------------|
A|-------------2-22222-2222/x-xxxxx-xxxx5--5--5--5--5--5----------------------|
E|-0-00000-00023-33333-3333/7-77777-77776--6--6--6--6--6----------------------|

e|-------------0-00000-0000/0-00000-00000--0--0--0--0--0----------------------|
B|-------------0-00000-0000/0-00000-00000--0--0--0--0--0----------------------|
G|-------------0-00000-0000/0-00000-00000--0--0--0--0--0----------------------|
D|-------------0-00000-0000/0-00000-00000--0--0--0--0--0----------------------|
A|-------------2-22222-2222/x-xxxxx-xxxx5--5--5--5--5--5----------------------|
E|-0-00000-00023-33333-3333/7-77777-77776--6--6--6--6--6----------------------|

e|-------------0-00000-00000--0-00-00000--0-00-00000--0-00-00000--|
B|-------------0-00000-00002--2-22-00222--2-22-00222--2-22-00222--|Begin
G|-------------0-00000-00002--2-22-00222--2-22-00222--2-22-00222--|Strumming
D|-------------0-00000-00002--2-22-00222--2-22-00222--2-22-00222--|Pattern
A|-------------2-22222-22220--0-00-00000--0-00-00000--0-00-00000--|On
E|-0-00000-00023-33333-33330--0-00-00000--0-00-00000--0-00-00000--|The A Chord



A
They say they'll always say
         Em		             A
You walk too fast in front
A
Slow down there's easier ways
         Em		                A
He'll stay behind with us

	             Em		             A
And what's easier than worth doin'
       Em	            A
It's causing a fuss
         Em	  	                     A
Well justice, she's in the dining room
         Em	               A
That no one is to touch


        Em		            A
And by the curses I fleeted
     Em			            A
I'll stick with all that are stung
      Em	              A
'Til tossed away unconditioned
     Em				         A
I'll dig my way through the dung


Em  G    A      A  A  Ap
Oh  Oh  Oh
Oh  Oh  Oh
Oh  Oh  Oh
Oh  Oh  Oh

e|-0--0-00-00000--0-00-00000--0-00-00000--|
B|-2--2-22-00222--2-22-00222--2-22-00222--|Begin
G|-2--2-22-00222--2-22-00222--2-22-00222--|Strumming
D|-2--2-22-00222--2-22-00222--2-22-00222--|Pattern
A|-0--0-00-00000--0-00-00000--0-00-00000--|On
E|-0--0-00-00000--0-00-00000--0-00-00000--|The A Chord


A             D			                    A
By now I know my rights without weigh them
          D                      A
But I see no way to evade them
 	  D	   	                A
They say my name I'll obey them
	            D			                 A
And they'll ask for more and I'll pay them

A		  	           D		              A
They laughed back when I tried to dance with you
	             D		                    A
Cause they tied my love to mind-right you
          D			                 A	            A  A  Ap
They tied my love to mind-right you


Em  G    A        A  A  Ap
Oh  Oh  Oh
Oh  Oh  Oh
Oh  Oh  Oh
Oh  Oh  Oh

e|-0--0-00-00000--0-00-00000--0-00-00000--|
B|-2--2-22-00222--2-22-00222--2-22-00222--|Begin
G|-2--2-22-00222--2-22-00222--2-22-00222--|Strumming
D|-2--2-22-00222--2-22-00222--2-22-00222--|Pattern
A|-0--0-00-00000--0-00-00000--0-00-00000--|On
E|-0--0-00-00000--0-00-00000--0-00-00000--|The A Chord



A	             Em
Ride on my sailors
A	             Em
Deep in my mind
A		           Em
I've always be-lieved in you
A	              Em
Throw me a line

A			               Em
You can't swim in the shallow side
                A		                Em
And you can't run through time
A		            Em
We'll always be looking backwards
A		        Em	  A
Stuck on this side
	      Em	A
On this side
	      Em	A
On this side
Tap to rate this tab
# A B C D E F G H I J K L M N O P Q R S T U V W X Y Z