Song name
# A B C D E F G H I J K L M N O P Q R S T U V W X Y Z

Tiny Vipers - Development tab

tuning: E A B G B E


---------------0-----------------------0------------|
---------0--------0----(0)-------0--------0-----0---|
------1-----1--------1--------1-----1--------1------|
---2-----------------------2------------------------|
----------------------------------------------------|
----------------------------------------------------|

---------------0-----------------5-----5--4---------|
---------0--------0----(0)-------------------5------|
------4-----4--------4--------------4-----------4---|
----5-----------------------------------------------|
----------------------------------------------------|
---------------------------0------------------------|


then


----------------------------------------------------------------------------|
---------5-----------5-----------5-----------5-----------7-----------7------|
------4-----4-----4-----4-----4-----4-----4-----4-----6-----6-----6-----6---|
---------------5-----------5-----------5-----------7-----------7------------|
----------------------------------------------------------------------------|
---0------------------------------------------------------------------------|
Tap to rate this tab
 
# A B C D E F G H I J K L M N O P Q R S T U V W X Y Z