Song name
# A B C D E F G H I J K L M N O P Q R S T U V W X Y Z

Tiny Vipers - Tiger Mountain tab

-------------------------------------------------------------------------------
                             TIGER MOUNTAIN - Tiny Vipers
-------------------------------------------------------------------------------
Tabbed by: Miles
E-mail: herpderpface@y7mail.com

Didn't find any tabs for this, so decided to pick it out. Surprisingly lovely song for 
its incredible simplicity.

CAPO 2

There are only two chords throughout the whole song: Am and G.
The little thing she plays is this:

e|----------------------------------------|
B|-0---0---0---0-3-0---0---0---0----------|
G|---2---2---2-------2---2---2---2--------|
D|----------------------------------------|
A|-0--------------------------------------|
E|----------------------------------------|

That's the introduction and the bits in-between the verses and choruses. During the 
verses and choruses she leaves out the D (3rd fret on B), making it easier to sing at the 
same time, so it's just:

e|--------------------------------|
B|-0---0---0---0---0---0----------|
G|---2---2---2---2---2---2--------|
D|--------------------------------|
A|-0------------------------------|
E|--------------------------------|

Play that however many times she does/you want until you get to the G:

e|--------------------------|
B|-3---3---3---3------------|
G|---2---2---2--------------|
D|--------------------------|
A|--------------------------|
E|-3------------------------|

And... That's it!
Chorus is basically exactly the same. It's not difficult, if you give it a listen you 
should be able to get it pretty easily.
Tap to rate this tab
# A B C D E F G H I J K L M N O P Q R S T U V W X Y Z