Song name
# A B C D E F G H I J K L M N O P Q R S T U V W X Y Z

Tism - Greg The Stop Sign tab

----------------------------------------------------------------------------
	                 Greg! The Stop Sign - TISM
----------------------------------------------------------------------------
Tabbed by: zparsons
Email: zparsons22@hotmail.com

Tuning: normal

There isn't much guitar until about 40 seconds into the song, but its pretty basic.
(For strumming listen to the song)

Verse:
e|-------------------------------------------------------------------------|
B|-------------------------------------------------------------------------|
G|-------------------------------------------------------------------------|
D|---------------------------------5--5--5--5--5--5--5--5------------------|
A|------5--5--5--5--5--5--5--5-----3--3--3--3--3--3--3--3------------------|
E|------3--3--3--3--3--3--3--3---------------------------------------------|
       Do your homework...

e|-------------------------------------------------------------------------|
B|-------------------------------------------------------------------------|
G|-------------------------------------------------------------------------|
D|-----5--5--5--5--5--5--5--5----------------------------------------------|
A|-----3--3--3--3--3--3--3--3-------5--5--5--5--5--5--5--5-----------------|
E|----------------------------------3--3--3--3--3--3--3--3-----------------|
      Don't matter much...         Greg you missed the stop sign!

After the first "Greg you missed the stop sign!" it goes into the chorus which is played 
the verse (once again, listen to the song to figure out when to play). This repeats 
the next few verses and then a solo part after the second "Greg you missed the stop sign":


e|-------------------------------------------------------------------------|
B|-------------------------------------------------------------------------|
G|-------------------------------------------------------------------------|
D|-----5--5--------5--5-------5--5---------5-------------------------------|
A|-----------4h5---------4h5---------4h5-----------------------------------|
E|-------------------------------------------------------------------------|
            (^ the hammer-on is played slow)


e|-------------------------------------------------------------------------|
B|-----------3~------3-----------3-3~------3-------------------------------|
G|---------3-------3-----------3---------3---------------------------------|
D|-------5-------------------5---------------------------------------------|
A|---------------------6~--------------------6~----------------------------|
E|-------------------------------------------------------------------------|

e|-------------------------------------------------------------------------|
B|----------------------4-4------------------3-3------------------1-1------|
G|------------3-3--5-5-------------2-2--3-3-------------0-0--2-2-----------|
D|-------5-5------------------3-3------------------1-1---------------------|
A|-------------------------------------------------------------------------|
E|-------------------------------------------------------------------------|

e|-------------------------------------------------------------------------|
B|-------------------------------------------------------------------------|
G|----------------------3-3-----5-6-5-3--5-6-5-3--5-6-5-3--5-3--5p3--------|
D|-------0-0--4-4--5-5-----------------------------------------------------|
A|-------------------------------------------------------------------------|
E|-------------------------------------------------------------------------|

e|-------------------------------------------------------------------------|
B|-------------------------------------------------------------------------|
G|-------------------------------------------------------------------------|
D|-----5---5~-------0-3--5~------------------------------------------------|
A|-------------------------------------------------------------------------|
E|-------------------------------------------------------------------------|

Then theres a synth part and after when the regular verse starts, it goes back to the 
again for the chorus as well.


This is an awesome song and pretty easy too.  One of my favourites, for sure.


| /  slide up
| \  slide down
| h  hammer-on
| p  pull-off
| ~  vibrato
| +  harmonic
| x  Mute note
============================================================================
Tap to rate this tab
 
# A B C D E F G H I J K L M N O P Q R S T U V W X Y Z