Song name
# A B C D E F G H I J K L M N O P Q R S T U V W X Y Z

Titans - Dank tab

Help us improve GuitareTab! Take a short survey!
Titans - Dank
Tab by Brandon Vincent


A# F A# D# G C Tuning

0:00-0:17
----------    ---------|
--6~------    -6~------|
---9~----- x3 --9~-----|
-----7~---    ----7~---|
----------    ------8~-|
----------    ---------|


0:17-0:34
------------------------    ---------------------|
------------------------    ---------------------|
------------------------ x3 ---------------------|
------------------------    ---------------------|
---000-000-000-000--000-    --000-000-000-000----|
---000-000-000-000--000-    --000-000-000-000-1b-|
PM ... ... ... ...  ...       ... ... ... ...


0:34-0:51
------------------------------------------------|
---------------------------------------------3*-|
------------------------------------------------|
------------------------------------------------|
---000-000-000-000--000---000-000-000-000--00---|
---111-111-111-111--111---111-111-111-111--11---|
PM ... ... ... ...  ...   ... ... ... ...  ..

-----------------------------------------------|
-----------------------------------------------|
-----------------------------------------------|
-----------------------------------------------|
---000-000-000-000--000---000-000-000-000--000-|
---111-111-111-111--111---111-111-111-111--111-|
PM ... ... ... ...  ...   ... ... ... ...  ...


0:51-1:05
----x--------------pick--|
-----x-------------slide-|
------x-------7~---------|
-------0~-----0~---------|
--0----0~-----0~---------|
--0----0~-----0~---------|


1:05-1:17
------------------------    -------------------------|
------------------------    -------------------------|
------------------------ x3 -------------------------|
------------------------    -------------------------|
---000-000-000-000--000-    --000-000-000-000--00----|
---111-111-111-111--111-    --111-111-111-111--11-1b-|
PM ... ... ... ...  ...       ... ... ... ...  ..


1:17-1:42
----------------    -------------------------------------------------------|
----------------    ---------------------------6~--------------6~----------|
---------------- x2 ----------------------------9~--------------9~---------|
----------------    --8~8~8~8~--10~10~10~--0~-----7~--x0----0~----7~-------|
---0-0-0-0--000-    --8~8~8~8~--10~10~10~--0~---------x0----0~-------------|
---0-0-0-0--000-    --8~8~8~8~--10~10~10~--0~---------x0-1b-0~-------/10b--|
PM . . . .  ...                                        .


1:42-1:54 (This is two guitars going back and forth, will fix later)
----------------------------------------------------------------------????-????-|
-----6b----6b---6b 6b--6b---6b-6b-6b-6b-6b--6b---6b-6b-6b-6b-6b--6b---????-????-|
-----9b----9b---9b-9b--9b---9b-9b-9b-9b-9b--9b---9b-9b-9b-9b-9b--9b---????-????-|
--------------------------------------------------------------------------------|
---0----00----0-----------0--------------------0--------------------0-----------|
---0----00----0-----------0--------------------0--------------------0-----------|
PM .    ..    .           .                    .                    .


1:54-2:07

"On the off chance you witness what we can do, brick by brick we will tear this apart!"


2:07-2:31
------------------------------------------------------------------------------------------------|
------------------------------------------------------------------------------------------------|
------------------------------------------------------------------------------------------------| x2
------------------------------------------------------------------------------------------------|
-------------10101010-666-------------10101010-666------------10101010-666----------------------|
---000000000--------------00-0-000-00---------------000000000--------------00-0-000-0--1b-1b-1b-|
PM                             ... ..                                           ... .


2:31-3:07
-------------------------    ---------------|
-------------------------    ---------6~----|
------------------------- x8 ----(7)---9~---|
-------------------------    -0~---------7~-|
--------------5----10-10-    -0~------------|
---0-000-000-3-3--8--8---    -0~------------|
PM   ..  ..


3:07-3:28
----------------------------------------------|
----------------------------------------------|
----------------------------------------------|
----------------------------------------------|
---000-000-000-000--000---000-000-000-000-----|
---000-000-000-000--000---000-000-000-000--3*-|
PM ... ... ... ...  ...   ... ... ... ...

----------------------------------------------|
----------------------------------------------|
----------------------------------------------|
----------------------------------------------|
---000-000-000-000--000---000-000-000-000-----|
---000-000-000-000--000---000-000-000-000--1b-|
PM ... ... ... ...  ...   ... ... ... ...


3:28-3:54
--------------------x-----------------------x---    ---|
---------------------x-----------------------x--    ---|
----------------------x-----------------------x- x2 ---|
------------------------------------------------    ---|
---00-0-00-0-00-0-00---00-0-00000000-00-0-00----    -0-|
---11-1-11-1-11-1-11---11-1-11111111-11-1-11----    -1-|
PM  . . .. . .. . ..   .. . ........ .. . ..         .


* - Pinch Harmonic
b - Bend
/ - Slide
. - Palm Mute
X - Mute String
~ - Let Ring

http://www.myspace.com/titansdoom
Related for Dank tab