Song name
# A B C D E F G H I J K L M N O P Q R S T U V W X Y Z

Title Fight - Anaconda Sniper tab

-------------------------------------------------------------------------------
			     ANACONDA SNIPER - Title Fight
-------------------------------------------------------------------------------

Tabbed by: Raphael Bastek
Email: raf_gpm@yahoo.com

Tuning: Drop D

Key:

. = palm mute
/ = slide

Band myspace: myspace.com/titlefight

Riff Ia (played first at ~0:02)

e|-------------------------------------------------------------------------------------------------|
B|-------------------------------------------------------------------------------------------------|
G|11----14----11-----------11----14----11-----------11----14----11-----------11----12----11----12--|
D|---12----12----12-14-12-----12----12----12-14-12-----12----12----12-14-12-----12----12----12---12|
A|-------------------------------------------------------------------------------------------------|
E|-------------------------------------------------------------------------------------------------|

Riff Ib (played first at ~0:31)

e|-------------------------------------------------------------------|
B|-19-----19-----------------19-----19-------------------------------|
G|----19-----19----21-19--------19-----19----21-19/------------------|
D|--------------19-------17---------------19-------------------------|
A|-------------------------------------------------------------------|
D|-------------------------------------------------------------------|

Riff IIa (played first at ~0:02)

Note: The chords G5, B5, A5, and F#5 are used throughout the whole song but just with 
strum patterns and

palm-mutes thrown in.

This is the pattern used in the intro.

e|---------------------------------------------------------------------------------|
B|---------------------------------------------------------------------------------|
G|---------------------------------------------------------------------------------|
D|--55555555--99999999--77777777--44-4-44-4--55-5555--99-9999-77-7-77-7-77-7-------|
A|--55555555--99999999--77777777--44-4-44-4--55-5555--99-9999-77-7-77-7-77-7-------|
D|--55555555--99999999--77777777--44-4-44-4--55-5555--99-9999-77-7-77-7-77-7-------|
                                  ..   ..                     ..   ..   ..

Riff IIb (played at 1:38)

e|-------------------------------------------------------------------|
B|-------------------------------------------------------------------|
G|-------------------------------------------------------------------|
D|-------------------------------------------------------------------|
A|-55-55---55----99-99-9-99-9--77-77-7-77-7--44-44-4-44-4------------|
D|-55-55-5-55-5--99-99-9-99-9--77-77-7-77-7--44-44-4-44-4------------|
      ..   ..       ..   ..       ..   ..       ..   ..

Riff Ic (played at 2:14)

e|-------------------------------------------------------------------|
B|-------------------------------------------------------------------|
G|--------11h12-------12h14-------14p11-------12p11------------------|
D|--12-12-------12-12-------12-12-------12-12------------------------|
A|-------------------------------------------------------------------|
D|-------------------------------------------------------------------|
Tap to rate this tab
 
# A B C D E F G H I J K L M N O P Q R S T U V W X Y Z