Song name
# A B C D E F G H I J K L M N O P Q R S T U V W X Y Z

Title Fight - Memorial Field tab

Memorial Field- Title Fight

Tuning- Standard

Intro

E|-----------------------------------------------|
B|-----------------------------------------------|
G|-----------------------------------------------|
D|---3------53-----55-5/7------------------------|repeat 3 times
A|---3------53(x4)-55-5/7------------------------|
E|---1------31-----33-3/5------------------------|

Verse 1+2
E|--------------------------|
B|--------------------------|
G|-----------------555777---|
D|---3-------555777555777---|
A|---3(x16)--555777333555---|
E|---1-------333555---------|

Bridge 1:05
E|--------------------------|-----------------------------------|
B|--------------------------|-----------------------------------|
G|----------------55555555--|-5555------------------------------|
D|--3-------55577755555555--|-5555557733333333-5555777733333333-|(repeat x2)
A|--3(x16)--55577733333333--|-3333557733333333-5555777733333333-|
E|--1-------333555----------|-----335511111111-3333555511111111-|

Outro
E|-----------------------------------------------|
B|-----------------------------------------------|
G|-----------------------------------------------|
D|---3--------5-------3------555555-777777-------|
A|---3(x16)---5(x16)--3(x16)-555555-777777-------|
E|---1--------3-------1------333333-555555-------|

E|-----------------------------------------------|
B|-----------------------------------------------|
G|-----------------------------------------------|
D|---3xx3xx3--3xx3/5555------3-------------------|
A|---3xx3xx3--3xx3/5555(x4)--3-------------------|
E|---1xx1xx1--1xx1/3333------1-------------------|

This is my first tab for UG. Hope that it helps you out and isn't confusing at all.
Tap to rate this tab
# A B C D E F G H I J K L M N O P Q R S T U V W X Y Z