Song name
# A B C D E F G H I J K L M N O P Q R S T U V W X Y Z

Title Fight - Memorial Field tab

Rhythm:
 e|--------------------------------------|
 B|--------------------------------------|
 G|--------------------------------------|
 D|-3---555-3---555-3---555-3---55-555---|
 A|-3---555-3---555-3---555-3---55-555---|
 D|-3---555-3---555-3---555-3---55-555---|
PM|

Lead:

(Comes in after one time of just rhythm guitar.)

 e|-------------------------|
 B|-8-8-5-------3h5p3-------|
 G|--5-5---5555-------5-----|
 D|-------------------------|
 A|-------------------------|
 D|-------------------------|
PM|  x x   xxxx
Tap to rate this tab
 
# A B C D E F G H I J K L M N O P Q R S T U V W X Y Z