Song name
# A B C D E F G H I J K L M N O P Q R S T U V W X Y Z

Title Fight - Loud And Clear tab

LOUD AND CLEAR Intro
TITLE FIGHT
The Last Thing You Forget

standard tuning

-------------------------|
-----------9--------9-6--|
--------6---------6------|
--6--8--------6-8--------|
-------------------------|
-------------------------|

--6----------6-----------|
-----9--6-------9--6-----|
----------------------8--|
-------------------------|
-------------------------|
-------------------------|

-------------------------|
-----------9--------9-6--|
--------6---------6------|
--6--8--------6-8--------|
-------------------------|
-------------------------|

-------------------|
--6\4------4h6-----|
------6666-----66--|
-------------------|
-------------------|
-------------------|
Tap to rate this tab
 
# A B C D E F G H I J K L M N O P Q R S T U V W X Y Z