Title Fight - No One Stays At The Top Forever tab

-----------------------------------------------------------------------------
	       NO ONE STAYS AT THE TOP FOREVER (Intro) - Title Fight
-----------------------------------------------------------------------------
Tabbed by: Mean Mr Mustard
Email: gotchristo@comcast.net

Tuning: Standard


Hey I was wondering how to play this intro, so I tried coming up with it myself. 
Couldn't get the second half of the song though, sorry guys.

Intro: Lead (slowly)
e|---------------|---------------------|
B|-----3---3-----|-----3---3-----------|
G|---0-------4-~-|---0-------4-(^hs)---|   Play 2 x
D|-2-------------|-2-----------------0h|
A|-------3-------|-------3-------------|
E|---------------|---------------------|

Intro Rhythm pt. 1
e|-----------| p |------------|
B|-----------| l |------------|
G|------5----| a |------------|   Play 4 x
D|-9-9--5----| y |-5-5--5-8-8-|
A|-7-7--3----| 3 |-5-5--5-8-8-|
E|-0-0-------| x |-3-3--3-6-6-|

Intro Rhythm pt. 2
e|-------------|-------------|-------------|-------------|-----|
B|-------------|-------------|-------------|-------------|-----|
G|-------5-5-5-|-------------|-------5-5-5-|-------------|-4-~-|
D|-9-9-9-5-5-5-|-5-5-5-8-8-8-|-9-9-9-5-5-5-|-5-5-5-3-3-3-|-5-~-|
A|-7-7-7-3-3-3-|-5-5-5-8-8-8-|-7-7-7-3-3-3-|-5-5-5-3-3-3-|-3-~-|
E|-0-0-0-------|-3-3-3-6-6-6-|-0-0-0-------|-3-3-3-1-1-1-|-----|

I think a lot of the next two parts revolve around that last chord
Tap to rate this tab
 
# A B C D E F G H I J K L M N O P Q R S T U V W X Y Z