Song name
# A B C D E F G H I J K L M N O P Q R S T U V W X Y Z

Title Fight - Youre A Liar tab

This song is pretty simple and straight forward. You'll have to listen for the strumming 
patterns, but other than that I'm pretty sure this is right

e-----0--------0------------|
B-----0--------0------------|
G--4--1--4--4--1------------|
D--4--2--4--2--2------------|
A--2--2--2--4--2------------|
E-----0--------0------------|

e------------------------------|
B------------------------------|
G--4--3--1--8--4--3--1---------|
D--6--4--2--9--6--4--2---------| 2X
A--6--4--2--9--6--4--2---------|
E------------------------------|

e-----0--------0------------|
B-----0--------0------------|
G--4--1--4--4--1------------|
D--4--2--4--2--2------------|
A--2--2--2--4--2------------|
E-----0--------0------------|

e------------------------------|
B------------------------------|
G--4--3--1--8--4--3--1---------|
D--6--4--2--9--6--4--2---------| 2X
A--6--4--2--9--6--4--2---------|
E------------------------------|


e--------0---------------------|
B--------0---------------------|
G--8--8--1---------------------|
D--9--9--2---------------------|
A--9--x--2---------------------|
E-----9--0---------------------|
Tap to rate this tab
 
# A B C D E F G H I J K L M N O P Q R S T U V W X Y Z