Song name
# A B C D E F G H I J K L M N O P Q R S T U V W X Y Z

Title Fight - Memorial Field tab

Title Fight - Memorial Field

Tuning: Standard

Intro-

Guitar 1:

e|------3-3------------3-3-------------------------|
B|---------5--3-5-3--------5-3-3-3-----------------|
G|---5-5------------5-5------------5---------------|
D|-------------------------------------------------|
A|-------------------------------------------------|
E|-------------------------------------------------|

Guitar 2:
E|-------------------------------------------------|
B|-------------------------------------------------|
G|-------------------------------------------------|
D|---3------5-5-3-----5-5--5/7---------------------|x3
A|---3------5-5-3(x4)-5-5--5/7---------------------|
E|---1------3-3-1-----3-3--3/5---------------------|

Verse 1&2-

E|-------------------------------------------------|
B|-------------------------------------------------|
G|--------------------------5-5-5-5-7-7-7-7--------|
D|---3------5-5-5-5-7-7-7-7-5-5-5-5-7-7-7-7--------|
A|---3(x9)--5-5-5-5-7-7-7-7-3-3-3-3-5-5-5-5--------|
E|---1------3-3-3-3-5-5-5-5------------------------|


I am still trying to figure out the rest of the song. I will update as soon as possible.
Tap to rate this tab
# A B C D E F G H I J K L M N O P Q R S T U V W X Y Z