Song name
# A B C D E F G H I J K L M N O P Q R S T U V W X Y Z

Title Fight - Where Am I tab

This is my tab of the guitar part Jamie plays in the acoustic video of Blunt Magazine Sessions.
http://www.youtube.com/watch?v=7XxYYyecU2c

The song is pretty straight forward. These are the parts played, not everything is 
correct but you can play the entire song with these tabs. Jamie improvises sometimes, just 
fool around and play what sounds good.

Keep in mind that the song switches to 3/4 time in the riff/bridge part. Play one 4/4 
bar with muted strings after both parts to keep in time.

The rhythm part consists of the power chords C5, G4 and E5, just follow the root notes.

As a final note I'd like to add that Jamie hits the open G and B strings quite a lot. 
This adds a lot to the sound, try it out.

Song structure
Main Riff  x4
Verse x2
Pre-Chorus x2
Chorus x2
Riff x2
Verse x2
Pre-Chorus x2
Chorus x2
Bridge/riff x4
End

Main Riff
e------------------------------------------------------------------------------------|
B------------------------------------------------------------------------------------|
G----4-4----------------------4-4----------------------------------------------------|
D--------5-------4b5b4-0-----------5----------5s7-7-9-9-5-5--------------------------|
A-3--------------555-------2---------------------------------------------------------|
E-----------3-3------------0-------------3-3-----------------------------------------|

Verse ("Another floor...")
e-------------------------------------------------------------------------|
B-------------------------------------------------------------------------|
G-5-5-555-5-9-9-9--9-7--4-4-444-4--4-4-4----------------------------------|
D-5-5-555-5-9-9-9--7-5--2-2-222-2--2-2-2----------------------------------|
A-3-3-333-3-7-7-7-------3-3-333-3--2-2-2----------------------------------|
E------------------------------------0-0-0--------------------------------|

Pre-Chorus ("Where am I?")
e------------------------------------------------------------------------------|
B------------------------------------------------------------------------------|
G------------------------------------------------------------------------------|
D-5555555-999999-9b--5555555-99999999--444-------------------------------------|
A-5555555-999999-9b--5555555-99999999--555-------------------------------------|
E-3333333-777777-7b--3333333-77777777--222-------------------------------------|

Chorus ("This strange routine")
e-------------------------------------------------------------------------------|
B-------------------------------------------------------------------------------|
G-00-0000-000-0000-00-000-------------------------------------------------------|
D-55-5555-555-5555-55-555-5-55555-----------------------------------------------|
A-33-3333-303-3333-33-033-2-22222-----------------------------------------------|
E---------------------------0-00000---------------------------------------------|

Riff/Bridge
e-------------------------------------0--------------------------------|
B------3p0--------0----------3p0-------3-------------------------------|
G-------------------0--------------------0-----------------------------|
D-2--2--------2---------2--2--------------x----------------------------|
A-3--3----3---2---------3--3--------2-----x----------------------------|
E--------------0---------------------0---------------------------------|

End on
B -4
D -5
A- 3
Tap to rate this tab
# A B C D E F G H I J K L M N O P Q R S T U V W X Y Z