Song name
# A B C D E F G H I J K L M N O P Q R S T U V W X Y Z

Title Fight - Head In The Ceiling Fan tab

Head in The Ceiling Fan
Title Fight
jjjddd

EADGBe


MAIN RIFF  [clean, light fuzz]

e|-------------------------------------------------------------------------------|
B|----------------------------------------------9-12b-9-9b-----------------------|
G|----------------------------------------8-----6--------------------------------|
D|--4-------4b-----4b-----4b--------9--9----9---7---------11---11--11/13-13-13\--| x3
A|--2--2-2------2--2---2--2---2--/--7--7--------0--------------0---0-----0--0----|
E|--4--0-0------0------0------0--/--0--0-----------------------------------------|


e|-----------------------------------------------------------------------------|
B|-----------------------------------------------------------------------------|
G|-------8----------8----------8----------8-----9-----9------------------------|
D|-----------------------------------------------------------------------------|
A|--6-6--6--6--6-6--6--6--6-6--6--6--6-6--6--6--7-7-7-7-----0------------------|
E|--0-0--0--0--0-0--0--0--0-0--0--0--0-0--0--0--0-0-0-0---4---5~~~-------------|


[heavy distortion, feedback and junk]
e|-------------------------------------------------------------------------------|
B|----------------------------------------------9-12b-9-9b-----------------------|
G|----------------------------------------8-----6--------------------------------|
D|--4-------4b-----4b-----4b--------9--9----9---7---------11---11--11/13-13-13\--| x2
A|--2--2-2------2--2---2--2---2--/--7--7--------0--------------0---0-----0--0----|
E|--4--0-0------0------0------0--/--0--0-----------------------------------------|


this part might not be exact, not sure
e|-------------------------------|
B|-----------------12-12-12-12---|
G|-------------------------------| 
D|--------13-11-11---------------| x4
A|--11-11------------------------|
E|--0----------------------------|


rhythm guitar plays the main riff x2 here 

another guitar plays this over both times
e|---7--9---------------7--9--------------------------------------|
B|--------7--9---------------7--9--7------------------------------|
G|------------------------------------9--6--6\4--4/6---4----------|
D|---------------------------------------------------6---4-6------| x2
A|----------------------------------------------------------------|
E|----------------------------------------------------------------|


e|-------------------------------------------------------------------|
B|-------------------------------------------------------------------|
G|--8-8-8-8-8-8-8-8-8-8-8-8-8-8-8-8--9-9-9-9-9------------------x-x--|
D|--------------------------------------------------------------x-x--|
A|--6-6-6-6-6-6-6-6-6-6-6-6-6-6-6-6--7-7-7-7-7----0-------------x-x--|
E|--0-0-0-0-0-0-0-0-0-0-0-0-0-0-0-0--0-0-0-0-0--4---5~~~--------x-x--|


[clean, light fuzz again]
e|-------------------------------------------------------------------------------|
B|----------------------------------------------9-12b-9-9b-----------------------|
G|----------------------------------------8-----6--------------------------------|
D|--4-------4b-----4b-----4b--------9--9----9---7---------11---11--11/13-13-13\--| x2
A|--2--2-2------2--2---2--2---2--/--7--7--------0--------------0---0-----0--0----|
E|--4--0-0------0------0------0--/--0--0-----------------------------------------|

e|-----------------------------------------------------|
B|-----------------------------------------------------|
G|-----------------------------------------------------|
D|--4--------4b------------------FEEDBACK--------------|
A|--2---2-2--2-----------------------------------------|
E|------0-0--------------------------------------------|

some parts may require some small improvisation but this is most of it i think
awesome song, awesome band


Tap to rate this tab
# A B C D E F G H I J K L M N O P Q R S T U V W X Y Z