Song name
# A B C D E F G H I J K L M N O P Q R S T U V W X Y Z

Title Fight - Head In The Ceiling Fan tab

-------------------------------------------------------------------------------
                             Head in the Ceiling Fan - Title Fight
-------------------------------------------------------------------------------


Tuning:Standard EADGBE


INTRO
e|--------------------------------------------------------------------------|
B|---------------------------------------------12b~-9~---9h10p9-------------|
G|4b~------4b~-----------4b~-----8-8-8-8------------------------------------|
D|4b~------4b~-----------4b~-----6-6-6-6------------------------11~---------|
A|2b~------2b~-----------2b~--------------0~--------------------------------|
E|------0-------0~----0------0----------------------------------------------|


INTRO CONTINUED
e|--------------------------------------------------------------------------|
B|--------------------------------------------------------------------------|
G|--9-9-9-9-9/111111~----------4b~------------------------------------------|
D|-1111111111/131313~----------4b~---------(REPEAT ABOVE RIFF)--------------|
A|--0-0-0-0-0-0-0-0~-----------2b~------------------------------------------|
E|---------------------4p0-0~-----------------------------------------------|

PRE DISTORTION
e|--------------------------------------------------------------------------|
B|--------------------------------------------------------------------------|
G|--------------------------------------------------------------------------|
D|---4-4-4-4-4-4-4-4-4-4-4-4-4-4-4-4//6-6-6-6~------------------------------|
A|---6-6-6-6-6-6-6-6-6-6-6-6-6-6-6-6//7-7-7-7~-------0--0~------------------|
E|-------------------------------------------------4----5~------------------|

DISTORTION
Play intro riff, but with distortion and bridge pickup.


BRIDGE
e|-----------------7777-----------------------------------------------------|
B|-----------------9999-----------------------------------------------------|
G|-------8-6---6------------------------------------------------------------|
D|----9---------------------------------------------------------------------|
A|-----------0--------------------------------------------------------------|
E|-0------------------------------------------------------------------------|

SOLO/DREAMY PART
e|---7-9------------7-9-----------------------------------------------------|
B|-------7-9~-----------7-9-7-----------------------------------------------|
G|----------------------------9-6~-\4~/6~\1~/4~-----------------------------|
D|----------------------------------------------4~/6~~----1b-(nasty-bend)---|
A|--------------------------------------------------------------------------|
E|--------------------------------------------------------------------------|

PRE OUTRO (bend octaves as you please)
e|--------------------------------------------------------------------------|
B|--------------------------------------------------------------------------|
G|--8-8-8-8-8-8-8-8-8-8-8-8-8-8-8-8----9-9-9-9~-----------------------------|
D|--x-x-x-x-x-x-x-x-x-x-x-x-x-x-x-x----x-x-x-x~-----------------------------|
A|--6-6-6-6-6-6-6-6-6-6-6-6-6-6-6-6----7-7-7-7~-----0--0~-------------------|
E|------------------------------------------------4----5~-------------------|

OUTRO (same as intro, end on:)
e|--------------------------------------------------------------------------|
B|--------------------------------------------------------------------------|
G|------------4b~-----------------------------------------------------------|
D|------------4b~-----------------------------------------------------------|
A|------------2b~-----------------------------------------------------------|
E|---4p0--0-----------------------------------------------------------------|


| /   slide up
| \   slide down
| h   hammer-on
| p   pull-off
| ~   hold note
| b   Bend
Tap to rate this tab
 
# A B C D E F G H I J K L M N O P Q R S T U V W X Y Z