Song name
# A B C D E F G H I J K L M N O P Q R S T U V W X Y Z

Title Fight - Western Haikus Acoustic tab

Western Haikus (Acoustic)-Title Fight
Corrections-Retro_jetro@hotmail.co.uk

Intro/Break

e|----------------------------------------------|
B|-55555333330000000-33333333-33333333----------|
G|-00000000004444420-00000000-22222222----------|
D|-00000000000000000-00000000-22222222----------|
A|-33333333333333333-22222222-00000000----------|
E|-------------------33333333-------------------|

Verse

e|----------------------------------------------|
B|-3-3-33333333-3-3-33333333--------------------|
G|-0-0-00000000-0-0-00002222--------------------|
D|-2-2-22222222-0-0-00002222--------------------|
A|-3-3-33333333-2-2-22220000--------------------|
E|--------------3-3-3333------------------------|

Outro

e|----------------------------------------------|
B|-333333333333333333---------------------------|
G|-000000000000002222---------------------------|
D|-222222220000002222---------------------------|
A|-333333332222220000---------------------------|
E|---------333333-------------------------------|
Tap to rate this tab
# A B C D E F G H I J K L M N O P Q R S T U V W X Y Z