Song name
# A B C D E F G H I J K L M N O P Q R S T U V W X Y Z

Title Fight - Lefty tab

-----------------------------------------------------------------------------
                             LEFTY - Title Fight
-----------------------------------------------------------------------------
Favorite TF song from the new album. This song is pretty hard to tab out because I don't 
think its really like any other song they've written before. I feel like some parts can 
be played in different ways, but this way works for me.

Tuning: Standard


INTRO: x2
e|---------------------|--|-----------------|
B|---------------------|--|-----------------|
G|-8-~~~~~~~~~~~~~~~~~~|x4|-----------------|
D|-9-~~~~~~~~~~~~~~~~~~|--|-8-~~~~~~--------|
A|-7-~~~~~~~~~~~~~~~~~~|--|-9-~~~~~~--------|
E|-0-------9-----7-----|--|-7-~~~~~~--------|
 |
e|---------------------|--|-//////////////--|
B|---------7-----------|--|-//////////////--|
G|----8------8---8-----|x2|-----------------|
D|-9----9------9----9--|--|-----------------|
A|---------------------|--|-----------------|
E|---------------------|--|-----------------|
*2nd guitar comes in 3rd time. On second repetition of intro, it just does that beastly 
pick scrape/feedback thing.


VERSE: x4
e|---------------------------------------------------------------------|
B|-----------------------------------111111111-------------------------|
G|-8-8-8-8-8-8-------8-8-8-8-8-------111111111-------------------------|
D|-9-9-9-9-9-9-------9-9-9-9-9-------111111111-----8----8-8-8-8-8-8-8--|
A|-7-7-7-7-7-7-9/11--7-7-7-7-7-9/11--9-9-9-9-9-----9----9-9-9-9-9-9-9--|
E|-0-0-0-0-0-0-7/9---0-0-0-0-0-7/9-------------0-0-7----7-7-7-7-7-7-7--|


CHORUS: x4
e|---------------------------------------|
B|-------7-~~~~-------------4-------2----|
G|---8---8-~~~~---------------4---4---4--|
D|---9---9-~~~~-----------1--------------|
A|-7---7--------7-~~~~--2-------4--------|
E|-0-------------------------------------|


OUTRO: x4
e|------------------------------|
B|------------------------------|
G|-8-8-8-8-~~~~-----------------|
D|-9-9-9-9-~~~~-9-9-9-11-~~~~---|
A|-7-7-7-7-~~~~-9-9-9-11-~~~~---|
E|-0-0-0-0-~~~~-7-7-7-9--~~~~---|

That's should be all the parts, just repeat the verse and chorus twice and then end with 
the intro.
Tap to rate this tab
# A B C D E F G H I J K L M N O P Q R S T U V W X Y Z