Song name
# A B C D E F G H I J K L M N O P Q R S T U V W X Y Z

Title Fight - In Between tab

TITLE FIGHT - IN BETWEEN 

BD = Bend down
BU = Bend up
p = pull off

e|---------------------------------|
b|--------------------0------------|
G|-8-8-8-8-8-8---8-----------------|
D|-9-9-9-9-9-9---9--9---9-11BDBUp9-| x8
A|-7-7---7-7--------------9--------|
E|-----7-----7-0-9--------10-------|

e|-------------------------------------|
b|-------------------------------------|
G|----8-8-8----------8-----------------|
D|-2--9-9-9-------2--9---11-11-11-11BD-| 1,3
A|-2--7-7-7-6-6-6-2--7-0-11-11-11------|
E|-0--------9-9-9-0----0-9--9--9-------|

e|-----------------------------------------|
b|-----------------------------------------|
G|----8-8-8----------8---------------------|
D|-2--9-9-9-------2--9---11-11-11-11-11-11-| 2,4
A|-2--7-7-7-6-6-6-2--7-0-11-11-11-11-11-11-|
E|-0--------9-9-9-0----0-9--9--9--9--9--9--|

e|---------------------------------|
b|--------------------0------------|
G|-8-8-8-8-8-8---8-----------------|
D|-9-9-9-9-9-9---9--9---9-11BDBUp9-| x6
A|-7-7---7-7--------------9--------|
E|-----7-----7-0-9--------10-------|

e|-------------------------------------|
b|-------------------------------------|
G|----8-8-8----------8-----------------|
D|-2--9-9-9-------2--9---11-11-11-11BD-| 1,3
A|-2--7-7-7-6-6-6-2--7-0-11-11-11------|
E|-0--------9-9-9-0----0-9--9--9-------|

e|-----------------------------------------|
b|-----------------------------------------|
G|----8-8-8----------8---------------------|
D|-2--9-9-9-------2--9---11-11-11-11-11-11-| 2,4
A|-2--7-7-7-6-6-6-2--7-0-11-11-11-11-11-11-|
E|-0--------9-9-9-0----0-9--9--9--9--9--9--|

e|-12BUBD--------12-15-15-15-12-15-15-15-12-|
b|--------13--------------------------------|
G|-----------14-----------------------------|
D|------------------------------------------| x8
A|------------------------------------------|
E|------------------------------------------|

e|-12BUBD----12BUBD----12BUBD----15-15-|
b|--------16--------16--------13-------|
G|-------------------------------------|
D|-------------------------------------|
A|-------------------------------------|
E|-------------------------------------|

e|-12BUBD----12BUBD----12BUBD----12BUBD----12-15-15-|
b|--------16--------16--------16--------16----------|
G|--------------------------------------------------|
D|--------------------------------------------------| x3
A|--------------------------------------------------|
E|--------------------------------------------------|

e|---------------------------------|
b|--------------------0------------|
G|-8-8-8-8-8-8---8-----------------|
D|-9-9-9-9-9-9---9--9---9-11BDBUp9-| x4
A|-7-7---7-7--------------9--------|
E|-----7-----7-0-9--------10-------|
Tap to rate this tab
# A B C D E F G H I J K L M N O P Q R S T U V W X Y Z