Song name
# A B C D E F G H I J K L M N O P Q R S T U V W X Y Z

Title Fight - Off The Coast tab

This song is pretty straight forward and easy. Just some basic chord structures. CAPO 
2nd Fret

E|--0----0--|
B|--0----0--|
G|--0----0--|        Repeat throughout the entire song(Very basic song).
D|--0----2--|
A|--2----3--|
E|--3----x--|

E|--------------|
B|--3--5--3--0--|   Play this with open strings for intro and in between verses.
G|--------------|   (Play between the first chord and second chord)
D|--------------|
A|--------------|
E|--------------|

End on the second chord.
Tap to rate this tab
 
# A B C D E F G H I J K L M N O P Q R S T U V W X Y Z