Song name
# A B C D E F G H I J K L M N O P Q R S T U V W X Y Z

Title Fight - Make You Cry tab

Intro/Verse

e|-------------------------------------|---|-------------------------------------|
B|-8-8-8--7-7-7------------------------|---|-------------------------------------|
G|-x-x-x--x-x-x-7-7-7-9-9-7-7-2--2-2-2-|---|-4-4-4-4-4-4-4-4-4-4-4-4-4-4-4-4-4---|
D|-x-x-x--x-x-x-0-0-0-0-0-0-0-0--0-0-0-|-x3|-------------------------------------|
A|-7-7-7--5-5-5-x-x-x-x-x-x-x-x--x-x-x-|---|-------------------------------------|
E|--------------7-7-7-7-7-7-7-2--2-2-2-|---|-3-3-3-3-3-3-3-3-3-3-3-3-3-3-3-3-3---|



Pre-Chorus
 
e|----------------------------------|
B|----------------------------------|
G|----------0----------------0------|
D|---0------4---------0------4------|
A|-4---4------------4---4-----------|
E|--------0----------------0--------|

Chorus

e|---------------------------------------------------------------------------------|
B|---------------------------------------------------------------------------------|
G|--7--7--7-7-7---11-11-11-11--11-11---4-4-4-4-4-4-4-4-4-4-4-4-4-4-4-4-4-4-4-4-----|
D|--0--0--0-0-0---0---0--0--0---0--0---0-0-0-0-0-0-0-0-0-0-0-0-0-0-0-0-0-0-0-0-----|
A|---------------------------------------------------------------------------------|
E|--7--7--7-7-7---10-10-10-10--10-10---3-3-3-3-3-3-3-3-3-3-3-3-3-3-3-3-3-3-3-3-----|

Verse

e|-------------------------------------|---|-------------------------------------|
B|-8-8-8--7-7-7------------------------|---|-------------------------------------|
G|-x-x-x--x-x-x-7-7-7-9-9-7-7-2--2-2-2-|---|-4-4-4-4-4-4-4-4-4-4-4-4-4-4-4-4-4---|
D|-x-x-x--x-x-x-0-0-0-0-0-0-0-0--0-0-0-|-x3|-------------------------------------|
A|-7-7-7--5-5-5-x-x-x-x-x-x-x-x--x-x-x-|---|-------------------------------------|
E|--------------7-7-7-7-7-7-7-2--2-2-2-|---|-3-3-3-3-3-3-3-3-3-3-3-3-3-3-3-3-3---|



Interlude

e|--------------------------------|                    |--------------| 
B|--------------------------------|                    |--------------|
G|---------2-2--------------------|                    |--------------|
D|-4-4-2-2-----4--------4-4-4-4---| last time end with |--4-4-4-2-2-0-|
A|--------------------------------|                    |--------------|
E|--------------------------------|                    |--------------|
   

Chorus 

e|---------------------------------------------------------------------------------|
B|---------------------------------------------------------------------------------|
G|--7--7--7-7-7---11-11-11-11--11-11---4-4-4-4-4-4-4-4-4-4-4-4-4-4-4-4-4-4-4-4-----|
D|--0--0--0-0-0---0---0--0--0---0--0---0-0-0-0-0-0-0-0-0-0-0-0-0-0-0-0-0-0-0-0-----|
A|---------------------------------------------------------------------------------|
E|--7--7--7-7-7---10-10-10-10--10-10---3-3-3-3-3-3-3-3-3-3-3-3-3-3-3-3-3-3-3-3-----|


Outro

e|-------------------------------------|---|-------------------------------------|
B|-8-8-8--7-7-7------------------------|---|-------------------------------------|
G|-x-x-x--x-x-x-7-7-7-9-9-7-7-2--2-2-2-|---|-4-4-4-4-4-4-4-4-4-4-4-4-4-4-4-4-4---|
D|-x-x-x--x-x-x-0-0-0-0-0-0-0-0--0-0-0-|-x3|-------------------------------------|
A|-7-7-7--5-5-5-x-x-x-x-x-x-x-x--x-x-x-|---|-------------------------------------|
E|--------------7-7-7-7-7-7-7-2--2-2-2-|---|-3-3-3-3-3-3-3-3-3-3-3-3-3-3-3-3-3---|

e|----------------------------------|
B|----------------------------------|
G|----------0----------------0------|
D|---0------4---------0------4------|
A|-4---4------------4---4-----------|
E|--------0----------------0--------|
Tap to rate this tab
# A B C D E F G H I J K L M N O P Q R S T U V W X Y Z