Song name
# A B C D E F G H I J K L M N O P Q R S T U V W X Y Z

Title Fight - Like A Ritual Acoustic tab

-------------------------------------------------------------------------------
                             Like a Ritual (acoustic) - Title Fight
-------------------------------------------------------------------------------

This is the version from the Bondi Porch Sessions

This really only has 2 parts in it plus the little outro part.

You can watch the video for the strum pattern.

YouTube Link: http://www.youtube.com/watch?v=rqhZmKdUES0

Tabbed by:chitonyaface
E-mail:pencilazer@yahoo.com

Tuning:EADGBe

He doesn't do 5 7 7 part every time. watch the video for help.

e|-----0----------------------------0-----------0---0---0--------------------|
B|-----0----------------------------0-----------3---3---3p-------------------|
G|-----0---------------------------h2---2p------0---0---0--------------------|
D|-----0---------------10--7----3---3---3-------0---0---0--------------------|
A|-2---2-------0h2p----10--7----3---3---3-------2--h2---2--------------------|
E|-0---0-------0-------8---5----0---0---0-------3---3---3--------------------|

*The second set of chords below are the extra stuff that he does. Play them when needed*

I recommend that you watch the video for the pull off on the high e string if you cant't 
figure it out.

e|-------------------------------------------------3p---------------------------|
B|-1---1-------1---1---1-------1---1-------1---1---1---1---1--------------------|
G|-2---0-------2---2---2-------2---0-------2---2---2---2---0--------------------|
D|-2---0-------3---0---3-------2---0-------3---0-------3---3--------------------|
A|-0---0-------3---0---3-------0---0-------3---0-------3---3--------------------|
E|------------------------------------------------------------------------------|



************************************

| /   slide up
| \   slide down
| h   hammer-on
| p   pull-off
| ~   vibrato
| +   harmonic
| x   Mute note
| b   Bend
| pb  Pre-bend
| br  Bend release
| pbr Pre-bend release
| brb Bend release bend

************************************
Tap to rate this tab
 
# A B C D E F G H I J K L M N O P Q R S T U V W X Y Z