Song name
# A B C D E F G H I J K L M N O P Q R S T U V W X Y Z

Tito And Tarantula - Strange Face Of Love tab

I know this isn't 100% correct.

Hopefully, someone can see this and take it from here. This is, what I think, is
the main body of the song. Someone needs to do it right.


Track 1
     Q    Q     Q    E  E     Q    Q     Q    E  E     Q    Q     Q    E  E
E||------------------------|------------------------|------------------------|
B||-=----------------------|------------------------|------------------------|
G||------------------------|------------------------|------------------------|
D||------------------------|------------------------|------------------------|
A||-------------0----2--3--|-------------0----2--3--|-------------0----2--3--|
E||--0----3~---------------|--0----3~---------------|--0----3~---------------|


  Q    Q     Q    E  E     Q    Q     Q    E  E     Q    Q     Q    E  E
------------------------|------------------------|------------------------|
------------------------|------------------------|------------------------|
------------------------|------------------------|------------------------|
------------------------|-------------0----2--3--|-------------0----2--3--|
-------------0----2--3--|--0----3~---------------|--0----3~---------------|
--0----3~---------------|------------------------|------------------------|


  Q    Q     Q    E  E     Q    Q     Q    E  E
------------------------|------------------------||
------------------------|------------------------||
------------------------|------------------------||
------------------------|------------------------||
-------------0----2--3--|-------------0----2--3--||
--0----3~---------------|--0----3~---------------||
Tap to rate this tab
# A B C D E F G H I J K L M N O P Q R S T U V W X Y Z