Song name
# A B C D E F G H I J K L M N O P Q R S T U V W X Y Z

Tito And Tarantula - Strange Face Of Love tab

E|---------------------------|
H|---------------------------|
G|---------------------------|    x2
D|------------2--------------|
A|----2-------0---1---2------|
E|----0---3------------------|

E|---------------------------|
H|---------------------------|    
G|------------2--------------|
D|----2-------0---1---2------|
A|----0---3------------------|
E|---------------------------|

E|---------------------------|
H|---------------------------|
G|---------------------------|    
D|------------2--------------|
A|----2-------0---1---2------|
E|----0---3------------------|


ojka
guitaronline.pl
Tap to rate this tab
# A B C D E F G H I J K L M N O P Q R S T U V W X Y Z