Song name
# A B C D E F G H I J K L M N O P Q R S T U V W X Y Z

Tits Of Death - Iron Nipples tab

[ Tits of Death - Iron Nipples | Tab by Ryeband ]
(http://www.youtube.com/watch?v=eIxTL9m5wts)

(E5)

e|---------------------------------|
B|---------------------------------|
G|---------------------------------|
D|-2-2-2-2-2-2-2-2-2-2-2-2-2-2-2-2-|
A|-2-2-2-2-2-2-2-2-2-2-2-2-2-2-2-2-|
E|-0-0-0-0-0-0-0-0-0-0-0-0-0-0-0-0-|

(E5) (A#5) (B5)

e|----------------------|
B|----------------------|
G|----------------------|
D|-2-2-2-2-2-2-2-2-8-9--|
A|-2-2-2-2-2-2-2-2-8-9--|
E|-0-0-0-0-0-0-0-0-6-7--|

(E5) (G5) (F#5) (F5)

e|-----------------------------------------------------------------|
B|-----------------------------------------------------------------|
G|-----------------------------------------------------------------|
D|-2-2-2-2-2-2-2-2-5-5-5-5-5-5-5-5-4-4-4-4-4-4-4-4-3-3-3-3-3-3-3-3-|
A|-2-2-2-2-2-2-2-2-5-5-5-5-5-5-5-5-4-4-4-4-4-4-4-4-3-3-3-3-3-3-3-3-|
E|-0-0-0-0-0-0-0-0-3-3-3-3-3-3-3-3-2-2-2-2-2-2-2-2-1-1-1-1-1-1-1-1-|
Tap to rate this tab
# A B C D E F G H I J K L M N O P Q R S T U V W X Y Z