Titus Andronicus - A More Perfect Union tab

This is by no means perfect or complete, but I haven't seen any tabs for this song so I 
I'd share what I've figured out so far.

The first part is something like this over and over again:

e|------|
B|------|
G|------|
D|-10---|
A|-10---|
E|-8----|

The first part of the solo is something like:

e|-3-55-3-55-3-5--3--------3-55-3-55-35--3---------------|
B|------------------5-5-5------------------5-5-5---------|
G|-------------------------------------------------------|
D|-------------------------------------------------------|
A|-------------------------------------------------------|
E|-------------------------------------------------------|

e|-3-55-3-55-3-5/8--5--3-----------------|
B|------------------------5--3------8----|
G|---------------------------------------|
D|---------------------------------------|
A|---------------------------------------|
E|---------------------------------------|

e|-----------------------------------|
B|-3-5-5-5-3-5-5-5-3-5-5-5-3-5-5-5---|
G|-----------------------------------|
D|-----------------------------------|
A|-----------------------------------|
E|-----------------------------------|

e|-3-5-5-5-3-5-5-5-3-5-5-5-3-5-5-5---|
B|-----------------------------------|
G|-----------------------------------|
D|-----------------------------------|
A|-----------------------------------|
E|-----------------------------------|

e|-----------------------------------|
B|-3-5-5-5-3-5-5-5-3-5-5-5-3-5-5-5---|
G|-----------------------------------|
D|-----------------------------------|
A|-----------------------------------|
E|-----------------------------------|

e|-3-5-5-5-3-5-5/8--5--3--5----------|
B|-----------------------------------|
G|-----------------------------------|
D|-----------------------------------|
A|-----------------------------------|
E|-----------------------------------|

e|-3-0-0-0-3-0-0-0-3-0-0-0-3-0-0-0---|
B|-----------------------------------|
G|-----------------------------------|
D|-----------------------------------|
A|-----------------------------------|
E|-----------------------------------|

e|-8-5-5-5-8-5-5-5-8-5-5-5-8-5-5-5---|
B|-----------------------------------|
G|-----------------------------------|
D|-----------------------------------|
A|-----------------------------------|
E|-----------------------------------|

e|-3-0-0-0-3-0-0-0-3-0-0-0-3-0-0-0---|
B|-----------------------------------|
G|-----------------------------------|
D|-----------------------------------|
A|-----------------------------------|
E|-----------------------------------|

e|-8-5-5-5-8-5-5-5/10----------------|
B|-----------------------------------|
G|-----------------------------------|
D|-----------------------------------|
A|-----------------------------------|
E|-----------------------------------|
Tap to rate this tab
 
# A B C D E F G H I J K L M N O P Q R S T U V W X Y Z