Song name
# A B C D E F G H I J K L M N O P Q R S T U V W X Y Z

Titus Andronicus - In A Big City tab

This is probably easier to play with capo on 3rd fret, but you might as well use a 
finger, the base riff is not very hard to play.

Intro / Verse

E|----------------------------------------------------------|
B|-3-3-xx-443----------3-3-33443----------------------------|
G|-3-3-xx-333353335333-3-3-33333353335333---(and so on)-----|
D|-3-3----333333333353-3-3-33333333333353-------------------|
A|-1-1------------------------------------------------------|
E|----------------------------------------------------------|

Chorus

E|----------------------------------------------------------|
B|----------------------------------------------------------|
G|-----8---------------8---------------8--------------------|
D|-5---8---8-5-8-5-5---8---8-5-8-5-5---8---8-5-8-5-8-5-8-5--|
A|-5---6---8-5-8-5-5---6---8-5-8-5-5---6---8-5-8-5-8-5-8-5--|
E|-3-------6-3-6-3-3-------6-3-6-3-3-------6-3-6-3-6-3-6-3--|

Bridge

E|-----------------------------------------------------------|
B|-3-------3----------------33------33------33------33-------|
G|---3---3---3---3----...-----33--33--33--33--33--33--33--33-|
D|-----5-------5----------------55------55------55------55---|
A|-----------------------------------------------------------|
E|-----------------------------------------------------------|

Ending
  4x
E|------------------|---------------------------------------|
B|------------------|---3---3---8---86-3-----6-36----3------|
G|-------8---8---8--|---------88--88---3----3-3--3--3-------|
D|-8-6-8-8-6-8-8-8--|-66--66--88--88---3-----------5--------|
A|-8-6-8-6-6-6-8-6--|-66--66--66--66---1--------------------|
E|-6-3-6---3---6----|-33--33--------------------------------|
Tap to rate this tab
# A B C D E F G H I J K L M N O P Q R S T U V W X Y Z