Song name
# A B C D E F G H I J K L M N O P Q R S T U V W X Y Z

Titus Andronicus - Upon Viewing Oregons Landscape With The Flood Of Detritus tab

Titus Andronicus - Upon Viewing Oregon's Landscape With The Flood Of Detritus

arranged for 1 guitar

Intro
E|----------------------------------------------------------|
B|----------------3-----------------------------------------|
G|----3-------023--53----3--3---------3---------------------|
D|----3---03-3--3----5-35-533-0-03-0-03---------------------|
A|---01-13-3----1----5------1--3-3--3-1---------------------|
E|-13------1---------3-----------1--------------------------|

Verse
E|----------------------------------------------------------|
B|----------------------------------------------------------|
G|-3---3---3---3-8-3---3---3---3-3--------------------------|
D|-3-3-3-5-3-3-3-8-3-3-3-5-3-3-3-3--------------------------|
A|-1-3-1-5-1-3-1-6-1-3-1-5-1-3-1-1--------------------------|
E|---1---3---1-------1---3---1------------------------------|

Chorus
E|----------------------------------------------------------|
B|----------------------------------------------------------|
G|-3-------3-3-----3-3-8-8-3-3-8-8--------------------------|
D|-3-3-5-5-3-3-5-5-3-3-8-8-3-3-8-8-3-3----------------------|
A|-1-3-5-5-1-1-5-5-1-1-6-6-1-1-6-6-3-3----------------------|
E|---1-3-3-----3-3-----------------1-1----------------------|

Outro
E|----------------------------------------------------------|
B|----------------3-----------------------------------------|
G|----3-------023--53----3--3---------3-----7---------------|
D|----3---03-3--3----5-35-533-0-03-0-03-----6---------------|
A|---01-13-3----1----5------1--3-3--3-1-313-8---------------|
E|-13------1---------3-----------1----------6---------------|

Intro
Verse(x3)
Chorus
Verse(x3)
Chorus
Outro
Tap to rate this tab
# A B C D E F G H I J K L M N O P Q R S T U V W X Y Z