Song name
# A B C D E F G H I J K L M N O P Q R S T U V W X Y Z

Tiziano Ferro - Ti Scatter Una Foto tab

TI SCATTERO UNA FOTO (TIZIANO FERRO)
(non è proprio corretta al 100x100...se ci sono errori fatemi sapere)

Intro

   SOL             SOL           DO              DO          Mim7         Mim7          Do         Re

-----------------------------------------------------------------------------------------------------------------|
-------3-------------3----------------0-------------0------------3-------------3---------------2---------0-------|
-0---0---0---------0---0---3-1h0----0---5---------0---5--------0---0---------0---0---------0-----0-----0---------|
---0-------0-----0-------0--------5-------5-----5-------5----2-------2-----2-------2-----5---5-----5/7-----------|
--------------------------------3-------------3----------------------------------------3-------------------------|
--------------3--------------------------------------------0-------------0---------------------------------------|


   Ricorderò e comunque anche se non vorrai                Ti chiamerò perché tanto non risponderai
   SOL             SOL           DO              DO          Mim7         Mim7          Do         Re

-------------------------------------------------------------------------------------------------------------|
-------3-------------3-----------------0-------------0------------3-------------3---------------2---------0--|
-----0---0---------0---0---3-1h0-----0---5---------0---5--------0---0---------0---0---------0-----0-----0----|
---0-------0-----0-------0---------5-------5-----5-------5----2-------2-----2-------2-----5---5-----5/7------|
---------------------------------3-------------3----------------------------------------3--------------------|
-3-------------3--------------------------------------------0-------------0----------------------------------|


   Come fa ridere adesso pensarti come a un gioco         E capendo che ti ho perso ti scatto un' altra foto
   SOL             SOL           DO              DO          Mim7         Mim7          Do         Re

--------------------------------------------------------------------------------------------------------------|
-------3-------------3-----------------0-------------0-------------3-------------3---------------2---------0--|
-----0---0---------0---0---3-1h0-----0---5---------0---5---------0---0---------0---0---------0-----0-----0----|
---0-------0-----0-------0---------5-------5-----5-------5-----2-------2-----2-------2-----5---5-----5/7------|
---------------------------------3-------------3----------------------------------------3---------------------|
-3-------------3---------------------------------------------0-------------0----------------------------------|


  Perché piccola potresti andartene dalle mie mani        Ed i giorni da prima lontani saranno anni
   SOL             SOL           DO              DO          Mim7         Mim7          Do         Re

---------------------------------------------------------------3-------------3----------------------------------|
-------0-------------0-------------0-------------0-----------------------------------------5-------------7------|
-----0---0---------0---0---------0---5---------0---5---------0---0---------0---0---------5----5--------7---7----|
---0-------0-----0-------0-----5-------5-----5-------5-----2-------2-----2-------2-----5--------5----7-------7--|
-----------------------------3-------------3----------------------------------------3-------------5-------------|
-3-------------3-----------------------------------------0-------------0----------------------------------------|

  E ti sco           rde       rai di me              Quando piove i profili e le case ricordano te
   SOL             SOL           DO              DO          Mim7         Mim7          Do         Do

---------------------------------------------------------------3-------3\2---------------------------------------|
-------0-------------0-------------0-------------0---------------3-----------3-------------0-------------0-------|
-----0---0---------0---0---------0---5---------0---5---------0-----0------------0--------0---5---------0---5-----|
---0-------0-----0-------0-----5-------5-----5-------5-----2---------------------------5-------5-----5-------5---|
-----------------------------3-------------3-----------------------------------------3-------------3-------------|
-3-------------3-----------------------------------------0-------------------------------------------------------|

 E sarà              be         llissimo             Perché gioia e dolore han lo stesso sapore con te
  SOL             SOL           DO              DO          Mim7         Mim7          Do         Re

--------------------------------------------------------------3-------3\2-----------------------------------------|
-------3-------------3-------------0-------------0--------------3------------3------------5-------7------7--------|
-----0---0---------0---0---------0---5---------0---5--------0-----0-------------0-------5---5-------7------7------|
---0-------0-----0-------0-----5-------5-----5-------5----2---------------------------5-------5-------7------7----|
-----------------------------3-------------3----------------------------------------3-----------------------------|
-3-------------3----------------------------------------0---------------------------------------------------------|


SIm                  DO                        MIm
Vorrei soltanto che la notte ora velocemente andasse
            DO                     RE       SOL
E tutto ciò che hai di me di colpo non tornasse
                 DO                          MIm
E voglio amore e tutte le attenzioni che sai dare
                DO               RE        SOL
E voglio indifferenza semmai mi vorrai ferire

DO-MIm-DO-RE
   SOL                       DO
E riconobbi il tuo sguardo in quello di un passante
 MIm                          DO         RE
Ma pure avendoti qui ti sentirei distante
    SOL                      DO
Cosa può significare sentirsi piccolo
  MIm                              DO            RE
Quando sei il più grande sogno il più grande incubo

SIm                                   DO
Siamo figli di mondi diversi una sola memoria
   MIm                                     DO    RE
Che cancella e disegna distratta la stessa storia
    SOL       DO
E ti scorderai di me
      MIm                              DO     RE
Quando piove i profili e le case ricordano te
  SOL     DO
E sarà bellissimo
  MIM                                          DO  RE
Perché gioia e dolore han lo stesso sapore con te
SIm                     DO                      MIm
Vorrei soltanto che la notte ora velocemente andasse
               DO              RE              SOL
E tutto ciò che hai di me di colpo non tornasse
                 DO                        MIm
E voglio amore e tutte le attenzioni che sai dare
            DO                 RE
E voglio indifferenza semmai mi vorrai ferire
SIb      FA
Non basta più il ricordo
RE                        SOL DO MIm DO RE
Ora voglio il tuo ritorno...
                                                            Perché gioia e
                                                            dolore     han

                                                                         lo stesso sapore
E sarà             be           llissimo                                               Lo stesso sapore con te
   SOL             SOL           DO              DO          Mim7         Mim7          Do         Re

-------------------------------------------------------------------3-------------3----------------------------------|
-------3-------------3-----------------0-------------0-----------------------------------------5-------------7------|
-----0---0---------0---0---3-1h0-----0---5---------0---5---------0---0---------0---0---------5----5--------7---7----|
---0-------0-----0-------0---------5-------5-----5-------5-----2-------2-----2-------2-----5--------5----7-------7--|
---------------------------------3-------------3----------------------------------------3-------------5-------------|
-3-------------3---------------------------------------------0-------------0----------------------------------------|


SIm                       DO                     MIm
Io Vorrei soltanto che la notte ora velocemente andasse
               DO                         RE-SOL
E tutto ciò che hai di me di colpo non tornasse
                DO                          MIm
E voglio amore e tutte le attenzioni che sai dare
              DO                 RE                   Mim(suonato dal basso verso l'alto)
E voglio indifferenza semmai mi vorrai ferire
              DO                 Re        Sol
E voglio indifferenza semmai mi vorrai ferire....
Tap to rate this tab
 
# A B C D E F G H I J K L M N O P Q R S T U V W X Y Z