Song name
# A B C D E F G H I J K L M N O P Q R S T U V W X Y Z

Tjay - Gradys On The Run tab

Highlighted       Show chord diagrams
Chords

E-----x--------2-------2-------3-------0-------3-----2----3------6-----0-----2---|
B-----5--------3-------2-------0-------2-------3-----0----3------7-----1-----3---|
G-----6--------2-------2-------0-------2-------0-----2----3------8-----0-----2---|
D-----5--------4-------4-------0-------2-------0-----0----2------8-----2-----0---|
A-----x--------2-------4-------2-------0-------2----------3------6-----3---------|
E-----5--------x-------2-------3---------------3-----------------x---------------|
    Amaj7      Bm7    F#m     G        A    
  Gsus  D6   C9    Ebm    C    D
---0------0-----------------|
---3------0-----------------|
---2------2-----------------|
---2------2-----------------|
---0------0-----------------|
----------------------------|
  Asus4   Asus2

Amaj7               XXXX     Amaj7             XXX
We built it an empire and drank it to the floor.
Amaj7                    XXX         Amaj7           XXX
Losing our selfs now lead to the next day back for more.
Amaj7               XXX  Amaj7               XXX
In the back of tony's it winds up twos a bird.
Amaj7                          XXX    Amaj7
Something stubbles past me looks like grady's on the run.


Chorus
Bm7            F#m           G        A
But it's over pasted it so we don't see how our
Bm7       F#m      G         A
Shadows pasted us in mediocrity
Bm7              F#m          G           A
The street light shows us what we've become
Ebm                 C9
And in the midst of it all
N.C.
Grandy's On The Run

Interlude

E----0----0----0----0----0---0----0----0-------------------|
B----2----3----0----2----2---3----0----2-------------------|
G----2----2----2----2----2---2----2----2-------------------|
D----2----2----2----2----2---2----2----2-------------------|
A----0----0----0----0----0---0----0----0-------------------|
E----------------------------------------------------------|


tjaymusic.com
Tap to rate this tab
# A B C D E F G H I J K L M N O P Q R S T U V W X Y Z