Song name
# A B C D E F G H I J K L M N O P Q R S T U V W X Y Z

Tk - Inminente Conjuncion tab

www.tkrock.com



Intro 
e|--------0------------------0---------| 		    
B|----3-------3---------3--------3-----| 		 
G|--0-?-0---0---0----0----0?-?-0---0---| 		 
D|-------------------------------------| 		 
A|-----------------3-------------------| 		 
E|-3-----------------------------------| 		 
  G5              Csus2    
                   
e|---------0-----------------2h3h2----------| 		    
B|-----3-------3---------3------------3-----| 		 
G|---0---0---0---0-----2---2--------2---2---| 		 
D|-------------------0----------------------| 		 
A|-2----------------------------------------| 		 
E|------------------------------------------|	 
  Bm                D 
 
 
PUNTEO DE INTRO (Uno le da el acompañamiento que crea necesario) 
e|--------------------------------------------------10----10----10--| 
B|----10--10--10---12--12---12----10----10----10--------------------| 
G|--12--12--12---12--12---12---12----12----12-----12---12---12------| 
 
 
Verso 1 
 G5       Csus2 
 Y será  como ves 
Bm        D              
volverás a crecer 
 G5       Csus2    
vivirás al llover 
Bm        D   
llorarás sin temer 
 
G             D 
Un lapicero de cuero 
   E7         C 
un papel de cemento 
G                D  
pintan vida algo púrpura 
E7     C 
en mi calle decepción 
 
   G        C 
Un libro que no respira más 
E                    C 
un balón que se olvidó ya de su forma 
   G                        D 
una radio que amplifica su obsolescencia 
E                   D 
y yo aquí expirando a pesar de vivir 
    
G5 D5 B5 C5 
 
A7 (Con pequeños cambios en la 2 cuerda)  

  G           D 
Quiero volar sin despegar 
E                      C 
llegar ahí, a sus ojos y su cuello 
G                      D 
pulir la brillantez de su armadura 
E                      C 
lograr la sensación de ya no poder más 
 
REPETIR 1 VERSO. 
 
G                  D  
Será la causa el oro negro 
E                       C 
que brilla nada y su intercambio es válido 
  G         D 
ella es así yo no la quiero ver 
E                  C    
quiere relucir y no la dejo 
 
INTRO 
 
G                  C 
Me doy cuenta que buscando 
Bm                       D 
llego tarde a la inminente conjunción 
G                     C 
sola vendrá con el tercer elemento 
Bm                         D 
mientras sigo esperando con un amigo 
     G		C 
un bastón 
Bm 	  D    
Inminente  conjunción
Tap to rate this tab
# A B C D E F G H I J K L M N O P Q R S T U V W X Y Z