Guitaretab - guitar tabs
Song name
# A B C D E F G H I J K L M N O P Q R S T U V W X Y Z

Tk - Longest Endurance tab

tuning: CGCFAD



INTRO
GUITAR ONE
D|------------------------------------------------------------------|
A|------------------------------------------------------------------|
F|------------------------------------------------------------------|
C|---4-444-44----777-666--2-222-22---------666----------------------| 
G|---4-444-44-------------2-222-22-----777--------------------------|
C|---4-444-44-------------2-222-22----------------------------------|

D|------------------------------------------------------------------|
A|------------------------------------------------------------------|
F|------------------------------------------------------------------|
C|---4-444----777-666--2-222--------6b------------------------------| 
G|---4-444-------------2-222----777---------------------------------|
C|---4-444-------------2-222----------------------------------------|

INTRO GUITAR TWO
D|------------------------------------------------------------------|
A|------------------------------------------------------------------|
F|------------------------------------------------------------------|
C|---4~-----2~-----4~-----2~--x-xx----6b----------------------------| 
G|---4~-----2~-----4~-----2~--x-xx----------------------------------|
C|---4~-----2~-----4~-----2~--x-xx----------------------------------|

CHORUS
BOTH GUITARS
D|------------------------------------------------------------------|
A|------------------------------------------------------------------|
F|------------------------------------------------------------------|
C|---4-44---7--44-4---6-666--22-2-------2-22---6-666----------------| x2
G|---4-44------44-4----------22-2---7---2-22------------------------|
C|---4-44------44-4----------22-2-------2-22------------------------|

3TH TIME END ON
D|----------------------------------------|
A|----------------------------------------|
F|----------------------------------------|
C|--22-2--------xxx2xxx2---xxx6-6-6b-----|
G|--22-2---7----xxx2xxx2---xxx-----------|
C|---22-2-------xxx2xxx2---xxx-----------|

PRE-VERSE
GUITAR 1
D|--------------------------|
A|--------------------------|
F|---4---7---7/9-7-5-4------|
C|-----5------5-------------| 
G|--------------------------|
C|--------------------------|

PRE-VERSE
GUITAR TWO
D|--------------------------|
A|--------------------------|
F|--------------------------|
C|---0~-----------------0~--| 
G|---0~-----------------0~--|
C|---0~-----------------0~--|

VERSE
GUITAR ONE
D|-------------------------------------------------------------------|
A|-------------------------------------------------------------------|
F|---5-----5-----5-----5---------------------------------------------|
C|-----3-2---3-2---3-2---3-2---3-2---3-2---3-2---3-2-----------------| x4
G|---------------------------5-----5-----3-----3---------------------|
C|-------------------------------------------------------------------|

VERSE 
GUITAR TWO
D|-------------------------------------------------------------------|
A|-------------------------------------------------------------------|
F|---5-----5-----5-----5---------------------------------------------|
C|---5-33--5-33--5-33--5--3-22--3-22--2-00--2-00---------------------| x4
G|---3-33--3-33--3-33--3--3-22--3-22--2-00--2-00---------------------|
C|---3-33--3-33--3-33--3--3-22--3-22--2-00--2-00---------------------|

PRE-CHORUS
GUITAR ONE
D|-------------------------------------------------------------------|
A|-------------------------------------------------------------------|
F|-------------------------------------------------------------------|
C|---7x6x4x6x4x2---7x6x4x7x2~----------------------------------------| 
G|-------------------------------------------------------------------|
C|-------------------------------------------------------------------|

CHORUS
BOTH GUITARS
D|------------------------------------------------------------------|
A|------------------------------------------------------------------|
F|------------------------------------------------------------------|
C|---4-44---7--44-4---6-666--22-2-------2-22---6-666----------------| x2
G|---4-44------44-4----------22-2---7---2-22------------------------|
C|---4-44------44-4----------22-2-------2-22------------------------|

3TH TIME END ON
D|----------------------------------------|
A|----------------------------------------|
F|----------------------------------------|
C|--22-2--------xxx2xxx2---xxx6-6-6b-----|
G|--22-2---7----xxx2xxx2---xxxx-x-x------|
C|---22-2-------xxx2xxx2---xxxx-x-x------|
[ Tab from: http://www.guitaretab.com/t/tk/88902.html ]
PRE-VERSE
GUITAR TWO
D|--------------------------|
A|--------------------------|
F|--------------------------|
C|---0~--00-x-0~--00-x-0~---| 
G|---0~--00-x-0~--00-x-0~---|
C|---0~--00-x-0~--00-x-0~---|
         p.m      p.m

VERSE
GUITAR ONE
D|------------------------------------------------------------------|
A|------------------------------------------------------------------|
F|-----------------------------------4-5-4--------------------------|
C|---7-6-4-6-4-2----------7-6-4-6-4-2------5--7-6-4-6-4-2-----------| 
G|---------------4-5-4-2----------------------------------4-5-4-2---|
C|------------------------------------------------------------------|
                                                                      x2
D|------------------------------------------------------------------|
A|------------------------------------------------------------------|
F|---------------6-7-6----------------------------------------------|
C|---7-6-4-6-4-2-------7--------------------------------------------| 
G|------------------------------------------------------------------|
C|------------------------------------------------------------------|

VERSE
GUITAR TWO/ repeat as long guitar one is playing
D|------------------------------------------------------------------|
A|------------------------------------------------------------------|
F|---9/1010\777/999\555---------------------------------------------|
C|---x/x-x--xxx-xxx-xxx---------------------------------------------| 
G|---7/8-8-\555/777\333---------------------------------------------|
C|------------------------------------------------------------------|

CHORUS
BOTH GUITARS
D|------------------------------------------------------------------|
A|------------------------------------------------------------------|
F|------------------------------------------------------------------|
C|---4-44---7--44-4---6-666--22-2-------2-22---6-666----------------| x2
G|---4-44------44-4----------22-2---7---2-22------------------------|
C|---4-44------44-4----------22-2-------2-22------------------------|

3TH TIME END ON
D|----------------------------------------|
A|----------------------------------------|
F|----------------------------------------|
C|--22-2--------xxx2xxx2---xxx6-6-6b-----|
G|--22-2---7----xxx2xxx2---xxxx-x-x------|
C|---22-2-------xxx2xxx2---xxxx-x-x------|

BREAK
GUITAR ONE
D|-----------------------------------------------------------------|
A|-----------------------------------------------------------------|
F|-----------------------------------------------------------------|
C|---7-6---7-6---7-6---7-6-----7-6---7-6---7-6---7-6---------------| x4
G|-------7-----7-----7-----7-------4-----4-----4-----4-------------|
C|-----------------------------------------------------------------|

BREAK
GUITAR TWO
D|-----------------------------------------------------------------|
A|-----------------------------------------------------------------|
F|-----------------------------------------------------------------|
C|--7~----4~----7~----4~----7~----4~----7~----4~------------------|
G|--7~----4~----7~----4~----7~----4~----7~----4~------------------|
C|---7~----4~---7~----4~----7~----4~----7~----4~------------------|

GUITAR ONE SLIDE 2 SECONDS
D|----------------------------------------|
A|----------------------------------------|
F|----------------------------------------|
C|--------------------\-------------------|
G|-------------------\-------------------|
C|----------------------------------------|

CHORUS
BOTH GUITARS
D|------------------------------------------------------------------|
A|------------------------------------------------------------------|
F|------------------------------------------------------------------|
C|---4-44---7--44-4---6-666--22-2-------2-22---6-666----------------| x2
G|---4-44------44-4----------22-2---7---2-22------------------------|
C|---4-44------44-4----------22-2-------2-22------------------------|

3TH TIME END ON
D|----------------------------------------|
A|----------------------------------------|
F|----------------------------------------|
C|--22-2--------xxx2xxx2---xxx6-6-6b-----|
G|--22-2---7----xxx2xxx2---xxxx-x-x------|
C|---22-2-------xxx2xxx2---xxxx-x-x------|

END
BOTH GUITARS
D|----------------------------------------|
A|----------------------------------------|
F|----------------------------------------|
C|--4x4x4--4-x4x4--4-x4x4--4~------------|
G|--4-x4x4--4-x4x4--4-x4x4--4~------------|
C|--4-x4x4--4-x4x4--4-x4x4--4~------------|















Related for Longest Endurance tab