Song name
# A B C D E F G H I J K L M N O P Q R S T U V W X Y Z

Tlc - Scrub tab

tuning: standard

e----0----------------------0--------------2-0-------|
B---0----0-4---0-2---0-4---0----0-4---0-2------4-2-4-|
G--1----1-----1-----1-----1----1-----1---------------|
D-4----2-----2-----2-----4----2-----2----------------|
A----------------------------------------------------|
E----------------------------------------------------|

repeat
e----0----------------------0--------------2-0-------|
B---0----0-4---0-2---0-4---0----0-4---0-2------4-2-4-|
G--1----1-----1-----1-----1----1-----1---------------|
D-4----2-----2-----2-----4----2-----2----------------|
A----------------------------------------------------|
E----------------------------------------------------|
repeat a million times until the song is over... seriously.. this is the easiest song to play. have fun
             caroline
Tap to rate this tab
# A B C D E F G H I J K L M N O P Q R S T U V W X Y Z