Song name
# A B C D E F G H I J K L M N O P Q R S T U V W X Y Z

Tmg - Jump In My Car tab

Help us improve GuitareTab! Take a short survey!
Tabber: Brett Wade
Song: Jump In My Car
Band: TMG/Ted Mulry Gang

Intro:
                A5  A6  A5  A6                 D5   D6 D5    D6
E|------------------------------|---------------------------------|
B|3---3-------------------------|3---3----------------------------|
G|4p2-4p2-4-2-------------------|4p2-2p4-2-4---2-2-2-4-2-2-2-4-4--|
D|------------4-2-2-4-4-2-2-4-4-|------------4-0-0-0-0-0-0-0-0-0--|
A|--------------0-0-0-0-0-0-0-0-|---------------------------------|
E|------------------------------|---------------------------------|

E|--------------------------------|------------------------|
B|--------------------------------|------------------------|
G|--------------------------------|------------------------|
D|2-2-4-4-2-2-4-4-2-2-4-4-2-2-4-4/|7-7-9-9-7-7-9-9-7-7-9-9-|
A|0-0-0-0-0-0-0-0-0-0-0-0-0-0-0-0-|5-5-5-5-5-5-5-5-5-5-5-5-|
E|--------------------------------|------------------------|

The Chords For The Verses Are A,D,Eb,E & F

just play with blues sorta thing(like The A5 & A6 Above)

the solos comin' later I'm Nearly Finished. When U Get It

Try Playin' The Solo With Distortion (sounds wicked!)\

E-Mail:   theonlyking87@hotmail.com
Related for Jump In My Car tab