Song name
# A B C D E F G H I J K L M N O P Q R S T U V W X Y Z

Tnt - Harley Davidson tab

#----------------------------------PLEASE NOTE---------------------------------#
#This file is the author's own work and represents their interpretation of the #
#song. You may only use this file for private study, scholarship, or research. #
#------------------------------------------------------------------------------#

TNT- Harley Davidson
------------------------
Tab by Danielep
daniel_er_kul5@hotmail.com
Daniel Espelid Pedersen


----------------------------|
----------------------------|
-4--------------------------|
-4----------2-----5---7-----|
-2-0h2-0h2--2-----5---7-----|
------------0-----3---5-----|

-------------------------------------------------|
-------------------------------------------------|
--4--4--4--4--4--4--4--4-------------------------|
--4--4--4--4--4--4--4--4--2---2---2---2---2------|
--2--2--2--2--2--2--2--2--2---2---2---2---2------|
--------------------------0---0---0---0---0------|
pm...............................................

----------|
----------|
----------|
-7h9------|
---trill--
----------


-------------------------------------------------|
-------------------------------------------------|
--4--4--4--4--4--4--4--4-------------------------|
--4--4--4--4--4--4--4--4--2---2---2---2---2------|
--2--2--2--2--2--2--2--2--2---2---2---2---2------|
--------------------------0---0---0---0---0------|
pm...............................................

----------------------------|
----------------------------|
-4--------------------------|
-4----------2-----5---7-----|
-2-0h2-0h2--2-----5---7-----|
------------0-----3---5-----|


-------------------------------|
-------------------------------|
--4----------------------------|
--4---------------2-----4------|
--2---------------2-----4------|
------------------0-----2------|

chourse

------------------------------------|
------------------------------------|
-4----------------------------------|
-4-------2--------------------------|
-2-------2--------------------------|
---------0--------------------------|
harley - davidson


-----------------------------------|
-----------------------------------|
-4---------------------------------|
-4-------2-------------------------|
-2-------2-------------------------|
---------0-------------------------|
harley - davidson

-----------------------------------|
-----------------------------------|
-4---------------------------------|
-4-------2-------------------------|
-2-------2-------------------------|
---------0-------------------------|
harley - davidson

-----------------------|
-----------------------|
-----------------------|
--4--4-4--4-4--4-------|
--4--4-4--4-4--4-2-----|
--2--2-2--2-2--2-0-----|
for meg
Tap to rate this tab
# A B C D E F G H I J K L M N O P Q R S T U V W X Y Z