Song name
# A B C D E F G H I J K L M N O P Q R S T U V W X Y Z

Tnt - Black Thunder tab

|--------------------------------------------------------------------------------|
B|-------------------------------------------------------------------------------|
G|------------------------------------------------14-----------------------------|
D|-5-5-7-7-9-7-7-5-6-------6-6-3-6-9-11-12-3-3----13-5-xx-7-4-3-13-1o-15-11------|
A|-5-5-7-7-9-7-7-5-6-------6-6-3-6-9-11-12-3-3-12----5-xx-7-3-3-12-11-14-11------|
E|-3-3-5-5-7-5-5-3-4-5-3-4-4-4-2-3-8-10-10-1-1-10----3-xx-5-3-4-12-12-13-10------|

e|------------------14-15-15-------------------16-17-18-10-13-15----14----------|
B|---------------------------12-13-12-14-15-15-------------------15-----12------|
G|------------------------------------------------------------------------------|
D|5-5-7-7-9-9-solo--------------------------------------------------------------|
A|3-3-7-7-9-9-------------------------------------------------------------------|
E|3-3-5-5-7-7-------------------------------------------------------------------|

e|14-------14--12--14-----------15-----------------17----12-13-9-9-9-1-1-7-----|
B|---15-15-------------12-13-15----13-14-14-15-16-----19-------9-9-9-1-1-7-----|
G|-------------------------------------------------------------7-7-7-3-3-5-----|
D|-----------------------------------------------------------------------------|
A|-----------------------------------------------------------------------------|
E|-----------------------------------------------------------------------------|

e|-----------------------------------------------------------------------------|
B|-----------------------------------------------------------------------------|
G|-----------------------------------------------------------------------------|
D|7-9-7-5-14-14----------9-9-11-9--9-----13--93-2-4-7-8-5-4-4-------8----------|
A|7-8-9-5-14-14-14-12-12-9-9-11-9-8---12----9-2-2-4-7-8-5-4-4-4-7-7-8-11-13----|
E|9-7-7-3-12-12-12-12-12-7-7-9-7-7-11------7--1-1-3-5-7-3-2-2-6-8-6-7-11-12----|

e|x4------------------------------------------------------------------------------|
B|-------------------------------------^^^^-----------------------------^---------|
G|---------------------------8-4-7-----7-3-6------------7-0-7-6-9--0-9-5-9--------|
D|3-5-0-0-6-9--------------6-7-4-7-----8-2-5------------9-9-7-8--8-8-8-6-9--------|
A|3-5-0-9-6-|3-4-9-0-3-7-5-7-6-3-5-977-7-1-4-5715345638-8-9-5-7-7--9-7-4-11-------|

e|--hold the last note for 6 seconds then cut off ---------------------------|
G|---------------------------------------------------------------------------|
D|---------------------------------------------------------------------------|
A|---------------------------------------------------------------------------|
E|---------------------------------------------------------------------------|


************************************

| /   slide up
| \   slide down
| h   hammer-on
| p   pull-off
| ~   vibrato
| +   harmonic
| x   Mute note
| b   Bend
| pb  Pre-bend
| br  Bend release
| pbr Pre-bend release
| brb Bend release bend

************************************
Tap to rate this tab
 
# A B C D E F G H I J K L M N O P Q R S T U V W X Y Z