Tnt - Tell No Tales tab

-----------------------------------------------------------------------------
		      Tell No Tales - TNT (GUITAR)

-----------------------------------------------------------------------------
Tabbed by: Scotto10

Tuning: Down 1/2 step

=============================================================================


Guitar 1
                                   PM PM PM PM PM            PM PM PM PM PM     
      H        Q.      E      Q    E  E  E  E  E  E     Q    E  E  E  E  E  E   
D#||----------------------|--------------------------|-------------------------|
A#||------------------10--|---L-------------------8--|--L-------------------6--|
F#||-------------------9--|---L-------------------7--|--L-------------------5--|
C#||-------------------7--|---L-------------------5--|--L-------------------3--|
G#||----------------------|--------0--0--0--0--0-----|-------0--0--0--0--0-----|
D#||----------------------|--------------------------|-------------------------|


       PM PM PM PM PM PM              PM  PM PM PM      
  Q    E  E  E  E  E  E      E  E  E  E   E  E  E   E   
-------------------------|-----------------------------|
--L----------------------|-------------------------10--|
--L----------------------|-------------------7--9---9--|
--L----------------------|--10--9--7--9--10---------7--|
-------0--0--0--0--0--0--|-----------------------------|
-------------------------|-----------------------------|


        PM PM PM PM PM            PM PM PM PM PM            PM PM PM PM PM PM  
   Q    E  E  E  E  E  E     Q    E  E  E  E  E  E     Q    E  E  E  E  E  E   
--------------------------|-------------------------|-------------------------|
---L-------------------8--|--L-------------------6--|--L----------------------|
---L-------------------7--|--L-------------------5--|--L----------------------|
---L-------------------5--|--L-------------------3--|--L----------------------|
--------0--0--0--0--0-----|-------0--0--0--0--0-----|-------0--0--0--0--0--0--|
--------------------------|-------------------------|-------------------------|


            PM  PM PM                 PM PM PM PM PM     
   E  E  E  E   E  E  E   E      Q    E  E  E  E  E  E   
-----------------------------|--------------------------|
-------------------------10--|---L-------------------8--|
-------------------7--9---9--|---L-------------------7--|
--10--9--7--9--10---------7--|---L-------------------5--|
-----------------------------|--------0--0--0--0--0-----|
-----------------------------|--------------------------|


       PM PM PM PM PM            PM PM PM PM PM PM  
  Q    E  E  E  E  E  E     Q    E  E  E  E  E  E   
-------------------------|-------------------------|
--L-------------------6--|--L----------------------|
--L-------------------5--|--L----------------------|
--L-------------------3--|--L----------------------|
-------0--0--0--0--0-----|-------0--0--0--0--0--0--|
-------------------------|-------------------------|


            PM  PM PM                 PM PM PM PM PM     
   E  E  E  E   E  E  E   E      Q    E  E  E  E  E  E   
-----------------------------|--------------------------|
-------------------------10--|---L-------------------8--|
-------------------7--9---9--|---L-------------------7--|
--10--9--7--9--10---------7--|---L-------------------5--|
-----------------------------|--------0--0--0--0--0-----|
-----------------------------|--------------------------|


       PM PM PM PM PM            PM PM PM PM PM PM  
  Q    E  E  E  E  E  E     Q    E  E  E  E  E  E   
-------------------------|-------------------------|
--L-------------------6--|--L----------------------|
--L-------------------5--|--L----------------------|
--L-------------------3--|--L----------------------|
-------0--0--0--0--0-----|-------0--0--0--0--0--0--|
-------------------------|-------------------------|


         PM PM                        PM PM PM PM PM            PM PM PM PM PM  
   E  E  E  E   E   Q    E     Q.     E  E  E  E  E      Q.     E  E  E  E  E   
----------------------------|------------------------|-------------------------|
----------------------------|------------------------|-------------------------|
---------------10p--9----9--|--L---------------------|--10---------------------|
--10--9--7--9------------9--|--L---------------------|--10---------------------|
-------------------------7--|--L---------------------|---8------8--8--8--8--8--|
----------------------------|---------0--0--0--0--0--|-------------------------|


                                                      PM PM PM PM PM PM PM  
  H        E   E   Q       W                      E   E  E  E  E  E  E  E   
------------------------|----------------------|---------------------------|
------------------------|----------------------|---------------------------|
--5--------L------------|----------------------|---------------------------|
--5--------L------------|----------------------|---------------------------|
--3--------Ls--2p--0----|----------------------|---------------------------|
------------------------|--3brb----------------|--0h--1--1--1--1--1--1--1--|


      PM PM PM PM PM PM PM                                            
  E   E  E  E  E  E  E  E     W                   H        Q.     E   
---------------------------|-------------------|---------------------|
---------------------------|-------------------|------------------5--|
---------------------------|--7----------------|--0---------------4--|
---------------------------|--7----------------|--0---------------2--|
---------------------------|--5----------------|---------------------|
--0h--1--1--1--1--1--1--1--|-------------------|--3--------L---------|


         PM PM PM PM PM           PM PM PM PM PM                           
  Q.     E  E  E  E  E     Q.     E  E  E  E  E     H        E   E   Q     
------------------------|------------------------|------------------------|
--L---------------------|--6---------------------|------------------------|
--L---------------------|--5---------------------|--5--------L------------|
--L------2--2--2--2--2--|--3------3--3--3--3--3--|--5--------L------------|
------------------------|------------------------|--3--------Ls--2p--0----|
------------------------|------------------------|------------------------|


  W                      W                   W                 
----------------------|-------------------|-------------------|
----------------------|-------------------|-------------------|
----------------------|--5----------------|--L----------------|
----------------------|--5----------------|--L----------------|
----------------------|--3----------------|--L----------------|
--3brb----------------|-------------------|-------------------|


   W                    W                   W                 
--------------------|--------------------|-------------------|
--------------------|--------------------|-------------------|
--12----------------|---L----------------|--5----------------|
--------------------|--------------------|--5----------------|
--10----------------|---L----------------|--3----------------|
--------------------|--------------------|-------------------|


  W                   W                   W                   W                 
-------------------|-------------------|-------------------|-------------------|
-------------------|-------------------|-------------------|-------------------|
--7----------------|-------------------|-------------------|-------------------|
--7----------------|-------------------|-------------------|-------------------|
--5----------------|--3----------------|--5----------------|--3----------------|
-------------------|--1----------------|--3----------------|--1----------------|


  W                   W                   H        Q.      E   
-------------------|-------------------|----------------------|
-------------------|-------------------|------------------10--|
-------------------|-------------------|-------------------9--|
-------------------|-------------------|-------------------7--|
--L----------------|--5----------------|--L--------L----------|
--L----------------|--3----------------|--L--------L----------|


        PM PM PM PM PM            PM PM PM PM PM            PM PM PM PM PM PM  
   Q    E  E  E  E  E  E     Q    E  E  E  E  E  E     Q    E  E  E  E  E  E   
--------------------------|-------------------------|-------------------------|
---L-------------------8--|--L-------------------6--|--L----------------------|
---L-------------------7--|--L-------------------5--|--L----------------------|
---L-------------------5--|--L-------------------3--|--L----------------------|
--------0--0--0--0--0-----|-------0--0--0--0--0-----|-------0--0--0--0--0--0--|
--------------------------|-------------------------|-------------------------|


            PM  PM PM PM              PM PM PM PM PM     
   E  E  E  E   E  E  E   E      Q    E  E  E  E  E  E   
-----------------------------|--------------------------|
-------------------------10--|---L-------------------8--|
-------------------7--9---9--|---L-------------------7--|
--10--9--7--9--10---------7--|---L-------------------5--|
-----------------------------|--------0--0--0--0--0-----|
-----------------------------|--------------------------|


       PM PM PM PM PM            PM PM PM PM PM PM  
  Q    E  E  E  E  E  E     Q    E  E  E  E  E  E   
-------------------------|-------------------------|
--L-------------------6--|--L----------------------|
--L-------------------5--|--L----------------------|
--L-------------------3--|--L----------------------|
-------0--0--0--0--0-----|-------0--0--0--0--0--0--|
-------------------------|-------------------------|


            PM  PM PM                 PM PM PM PM PM     
   E  E  E  E   E  E  E   E      Q    E  E  E  E  E  E   
-----------------------------|--------------------------|
-------------------------10--|---L-------------------8--|
-------------------7--9---9--|---L-------------------7--|
--10--9--7--9--10---------7--|---L-------------------5--|
-----------------------------|--------0--0--0--0--0-----|
-----------------------------|--------------------------|


       PM PM PM PM PM            PM PM PM PM PM PM  
  Q    E  E  E  E  E  E     Q    E  E  E  E  E  E   
-------------------------|-------------------------|
--L-------------------6--|--L----------------------|
--L-------------------5--|--L----------------------|
--L-------------------3--|--L----------------------|
-------0--0--0--0--0-----|-------0--0--0--0--0--0--|
-------------------------|-------------------------|


            PM  PM PM                 PM PM PM PM PM     
   E  E  E  E   E  E  E   E      Q    E  E  E  E  E  E   
-----------------------------|--------------------------|
-------------------------10--|---L-------------------8--|
-------------------7--9---9--|---L-------------------7--|
--10--9--7--9--10---------7--|---L-------------------5--|
-----------------------------|--------0--0--0--0--0-----|
-----------------------------|--------------------------|


       PM PM PM PM PM            PM PM PM PM PM PM  
  Q    E  E  E  E  E  E     Q    E  E  E  E  E  E   
-------------------------|-------------------------|
--L-------------------6--|--L----------------------|
--L-------------------5--|--L----------------------|
--L-------------------3--|--L----------------------|
-------0--0--0--0--0-----|-------0--0--0--0--0--0--|
-------------------------|-------------------------|


          PM PM         PM PM            PM PM     PM PM     
   E   E  E  E   E   E  E  E      E   E  E  E   E  E  E  E   
------------------------------|-----------------------------|
------------------------------|-----------------------------|
------------------------------|----------------10--9--7--9--|
--10p--9--7--9--10p--9--7--9--|--10p--9--7--9---------------|
------------------------------|-----------------------------|
------------------------------|-----------------------------|


         PM PM PM PM PM            PM PM PM PM PM                           
  Q.     E  E  E  E  E      Q.     E  E  E  E  E     H        E   E   Q     
------------------------|-------------------------|------------------------|
------------------------|-------------------------|------------------------|
--9---------------------|--10---------------------|--5--------L------------|
--9---------------------|--10---------------------|--5--------L------------|
--7---------------------|---8------8--8--8--8--8--|--3--------Ls--2p--0----|
---------0--0--0--0--0--|-------------------------|------------------------|


                             PM PM PM PM PM PM PM        PM PM PM PM PM PM PM  
  W                      E   E  E  E  E  E  E  E     E   E  E  E  E  E  E  E   
----------------------|---------------------------|---------------------------|
----------------------|---------------------------|---------------------------|
----------------------|---------------------------|---------------------------|
----------------------|---------------------------|---------------------------|
----------------------|---------------------------|---------------------------|
--3brb----------------|--0h--1--1--1--1--1--1--1--|--0h--1--1--1--1--1--1--1--|


                                                   PM PM PM PM PM  
  W                   H        Q.     E     Q.     E  E  E  E  E   
-------------------|---------------------|------------------------|
--3----------------|------------------5--|--L---------------------|
--2----------------|--0---------------4--|--L---------------------|
--0----------------|--0---------------2--|--L------2--2--2--2--2--|
-------------------|---------------------|------------------------|
-------------------|--3--------L---------|------------------------|


         PM PM PM PM PM                                                  
  Q.     E  E  E  E  E     H        E   E   Q       W                    
------------------------|------------------------|----------------------|
--6---------------------|------------------------|----------------------|
--5---------------------|--5--------L------------|----------------------|
--3------3--3--3--3--3--|--5--------L------------|----------------------|
------------------------|--3--------Ls--2p--0----|----------------------|
------------------------|------------------------|--3brb----------------|


  W                   W                   W                   W                 
-------------------|-------------------|-------------------|-------------------|
-------------------|-------------------|--8----------------|--L----------------|
--5----------------|--L----------------|-------------------|-------------------|
--5----------------|--L----------------|--5----------------|--L----------------|
--3----------------|--L----------------|-------------------|-------------------|
-------------------|-------------------|-------------------|-------------------|


  W                   W                   W                   W                 
-------------------|-------------------|-------------------|-------------------|
-------------------|-------------------|-------------------|-------------------|
--5----------------|--7----------------|-------------------|-------------------|
--5----------------|--7----------------|-------------------|-------------------|
--3----------------|--5----------------|--3----------------|--5----------------|
-------------------|-------------------|--1----------------|--3----------------|


  W                   W                   W                 
-------------------|-------------------|-------------------|
-------------------|-------------------|-------------------|
-------------------|-------------------|-------------------|
-------------------|-------------------|-------------------|
--3----------------|--L----------------|--5----------------|
--1----------------|--L----------------|--3----------------|


                               PM PM PM PM PM            PM PM PM PM PM     
  H        Q.      E      Q    E  E  E  E  E  E     Q    E  E  E  E  E  E   
----------------------|--------------------------|-------------------------|
------------------10--|---L-------------------8--|--L-------------------6--|
-------------------9--|---L-------------------7--|--L-------------------5--|
-------------------7--|---L-------------------5--|--L-------------------3--|
--L--------L----------|--------0--0--0--0--0-----|-------0--0--0--0--0-----|
--L--------L----------|--------------------------|-------------------------|


       PM PM PM PM PM PM              PM  PM PM PM      
  Q    E  E  E  E  E  E      E  E  E  E   E  E  E   E   
-------------------------|-----------------------------|
--L----------------------|-------------------------10--|
--L----------------------|-------------------7--9---9--|
--L----------------------|--10--9--7--9--10---------7--|
-------0--0--0--0--0--0--|-----------------------------|
-------------------------|-----------------------------|


        PM PM PM PM PM            PM PM PM PM PM            PM PM PM PM PM PM  
   Q    E  E  E  E  E  E     Q    E  E  E  E  E  E     Q    E  E  E  E  E  E   
--------------------------|-------------------------|-------------------------|
---L-------------------8--|--L-------------------6--|--L----------------------|
---L-------------------7--|--L-------------------5--|--L----------------------|
---L-------------------5--|--L-------------------3--|--L----------------------|
--------0--0--0--0--0-----|-------0--0--0--0--0-----|-------0--0--0--0--0--0--|
--------------------------|-------------------------|-------------------------|


            PM  PM PM                 PM PM PM PM PM     
   E  E  E  E   E  E  E   E      Q    E  E  E  E  E  E   
-----------------------------|--------------------------|
-------------------------10--|---L-------------------8--|
-------------------7--9---9--|---L-------------------7--|
--10--9--7--9--10---------7--|---L-------------------5--|
-----------------------------|--------0--0--0--0--0-----|
-----------------------------|--------------------------|


       PM PM PM PM PM            PM PM PM PM PM PM  
  Q    E  E  E  E  E  E     Q    E  E  E  E  E  E   
-------------------------|-------------------------|
--L-------------------6--|--L----------------------|
--L-------------------5--|--L----------------------|
--L-------------------3--|--L----------------------|
-------0--0--0--0--0-----|-------0--0--0--0--0--0--|
-------------------------|-------------------------|


            PM  PM PM                 PM PM PM PM PM     
   E  E  E  E   E  E  E   E      Q    E  E  E  E  E  E   
-----------------------------|--------------------------|
-------------------------10--|---L-------------------8--|
-------------------7--9---9--|---L-------------------7--|
--10--9--7--9--10---------7--|---L-------------------5--|
-----------------------------|--------0--0--0--0--0-----|
-----------------------------|--------------------------|


       PM PM PM PM PM                  
  Q    E  E  E  E  E  E                
-------------------------|-----|-----||
--L-------------------6--|-----|-----||
--L-------------------5--|-----|-----||
--L-------------------3--|-----|-----||
-------0--0--0--0--0-----|-----|-----||
-------------------------|-----|-----||




Duration Legend
---------------
W - whole
H - half
Q - quarter
E - 8th
S - 16th
T - 32nd
X - 64th
. - note dotted
|-n-|  - n-tuplets


Tablature Legend
----------------
L - tied note
x - dead note
g - grace note
(n) - ghost note
> - accentuded note
NH - natural harmonic
AH - artificial harmonic
TH - tapped harmonic
SH - semi harmonic
PH - pitch harmonic
h - hammer on
p - pull off
b - bend
br - bendRelease
pb - preBend
pbr - preBendRelease
brb - bendReleaseBend
\n/ - tremolo bar dip
\n - tremolo bar dive
-/n - tremolo bar Release up
/n\ - tremolo bar inverted dip
/n - tremolo bar return
-\n - tremolo bar Release down
S - shift slide
s - legato slide
/ -  slide into from below or out of upwards
\ -  slide into from above or out of downwards
~ - vibrato
W - wide vibrato
tr - trill
TP - tremolo picking
T - tapping
S - slap
P - pop
< - fade in
^ - brush up
v - brush down
Tap to rate this tab
 
# A B C D E F G H I J K L M N O P Q R S T U V W X Y Z