Tnt - Incipits tab

-----------------------------------------------------------------------------
		           TNT - Incipits (GUITAR)
                       
-----------------------------------------------------------------------------
Tabbed by: Scotto10

Tuning: Standard

=============================================================================


Guitar 1 - rhythm



     W                                                                         
E||-------------------|-------|-------|-------|-------|-------|-------|-------|
B||-------------------|-------|-------|-------|-------|-------|-------|-------|
G||-------------------|-------|-------|-------|-------|-------|-------|-------|
D||-------------------|-------|-------|-------|-------|-------|-------|-------|
A||-------------------|-------|-------|-------|-------|-------|-------|-------|
E||-------------------|-------|-------|-------|-------|-------|-------|-------|


          H        Q    Q       W                   Q    Q    Q    Q     
-------|---------------------|-------------------|----------------------|
-------|---------------------|-------------------|----------------------|
-------|---------------------|-------------------|------------4---------|
-------|----------------6----|--L----------------|-------6----2----2----|
-------|-----------6----4----|--L----------------|-------4---------0----|
-------|-----------4---------|-------------------|----------------------|


  W                   Q    Q    Q    Q       H        E  E  Q     
-------------------|----------------------|----------------------|
-------------------|----------------------|----------------------|
-------------------|----------------------|----------------------|
--L----------------|-------2--------------|-----------------4----|
--L----------------|-------0----6----4----|--L-----------4--2----|
-------------------|------------4----2----|--L-----------2-------|


  H        E  E  Q       Q    Q    E  E  E  E     W                 
----------------------|------------------------|-------------------|
----------------------|------------------------|-------------------|
----------------------|------------------------|-------------------|
--L-----------4--6----|--L---------6--6--6--6--|--L----------------|
--L-----------2--4----|--L---------4--4--4--4--|--L----------------|
----------------------|------------------------|-------------------|


  W                                                          
-------------------|-------|-------|-------|-------|-------||
-------------------|-------|-------|-------|-------|-------||
-------------------|-------|-------|-------|-------|-------||
--L----------------|-------|-------|-------|-------|-------||
--L----------------|-------|-------|-------|-------|-------||
-------------------|-------|-------|-------|-------|-------||



=============================================================
=============================================================
=============================================================


Guitar 2

-------------------|-------------------|----------------9----|
-------------------|-------------------|-----------7---------|
-------------------|-------------------|---------------------|
-------------------|-------------------|---------------------|
-------------------|-------------------|---------------------|
-------------------|-------------------|---------------------|


  W                   Q    Q     Q     Q        W                 
--L----------------|--L----9----12----------|--------------------|
-------------------|------------------10----|---L----------------|
-------------------|------------------------|--------------------|
-------------------|------------------------|--------------------|
-------------------|------------------------|--------------------|
-------------------|------------------------|--------------------|


   Q     Q    Q    Q       H        E  E  Q       H        E  E  Q     
------------------------|-----------------7----|--L--------L-----9----|
---L----10----9----7----|--L--------L--7-------|--------------7-------|
------------------------|----------------------|----------------------|
------------------------|----------------------|----------------------|
------------------------|----------------------|----------------------|
------------------------|----------------------|----------------------|


           PM PM PM PM                                                  
  H        E  E  E  E     W                           W                 
--L--------------------|-------------------|-------|-------------------|
-----------------------|-------------------|-------|-------------------|
-----------6--6--6--6--|--L----------------|-------|-------------------|
-----------------------|-------------------|-------|-------------------|
-----------------------|-------------------|-------|-------------------|
-----------------------|-------------------|-------|-------------------|



=============================================================
=============================================================
=============================================================

Guitar 3 - an octave higher than Guitar 2

E||-------|-------|-------|-------|-------|-------|-------|-------|-------|
B||-------|-------|-------|-------|-------|-------|-------|-------|-------|
G||-------|-------|-------|-------|-------|-------|-------|-------|-------|
D||-------|-------|-------|-------|-------|-------|-------|-------|-------|
A||-------|-------|-------|-------|-------|-------|-------|-------|-------|
E||-------|-------|-------|-------|-------|-------|-------|-------|-------|


  H         Q     Q        W                   Q     Q     Q     Q     
-----------------21----|---L----------------|--L----21----24----------|
-----------19----------|--------------------|-------------------22----|
-----------------------|--------------------|-------------------------|
-----------------------|--------------------|-------------------------|
-----------------------|--------------------|-------------------------|
-----------------------|--------------------|-------------------------|


   W                    Q     Q     Q     Q       H        E   E   Q     
--------------------|--------------------------|------------------19----|
---L----------------|---L----22----21----19----|--L--------L--19--------|
--------------------|--------------------------|------------------------|
--------------------|--------------------------|------------------------|
--------------------|--------------------------|------------------------|
--------------------|--------------------------|------------------------|


  H        E   E   Q       H        H                                     
--L--------L------21----|--L-----------------|-----------|-------|-------|
--------------19--------|--------------------|-----------|-------|-------|
------------------------|--------------------|-----------|-------|-------|
------------------------|--------------------|-----------|-------|-------|
------------------------|--------------------|-----------|-------|-------|
------------------------|--------------------|-----------|-------|-------|


=============================================================
=============================================================
=============================================================

Keyboard adapted for the guitar

E||-------|--------------------------|--------------------------|
B||-------|--2--------3--2-----------|--2--------3--2-----------|
G||-------|--------1--------2--1-----|--------1--------2--1-----|
D||-------|-----4--------------------|-----4--------------------|
A||-------|-----------------------4--|-----------------------4--|
E||-------|--------------------------|--------------------------|


  E  E  E  E  E  E  E  E     E  E  E  E  E  E  E  E   
--------------------------|--------------------------|
--2--------3--2-----------|--2--------3--2-----------|
--------1--------2--1-----|--------1--------2--1-----|
-----4--------------------|-----4--------------------|
-----------------------4--|-----------------------4--|
--------------------------|--------------------------|


  E  E  E  E  E  E  E  E     E  E  E  E  E  E  E  E   
--------------------------|--------------------------|
--2--------3--2-----------|--2--------3--2-----------|
--------1--------2--1-----|--------1--------2--1-----|
-----4--------------------|-----4--------------------|
-----------------------4--|-----------------------4--|
--------------------------|--------------------------|


  E  E  E  E  E  E  E  E     E  E  E  E  E  E  E  E   
--------------------------|--------------------------|
--2--------3--2-----------|--2--------3--2-----------|
--------1--------2--1-----|--------1--------2--1-----|
-----4--------------------|-----4--------------------|
-----------------------4--|-----------------------4--|
--------------------------|--------------------------|


  E  E  E  E  E  E  E  E     E  E  E  E  E  E  E  E   
--------------------------|--------------------------|
--2--------3--2-----------|--2--------3--2-----------|
--------1--------2--1-----|--------1--------2--1-----|
-----4--------------------|-----4--------------------|
-----------------------4--|-----------------------4--|
--------------------------|--------------------------|


  E  E  E  E  E  E  E  E     E  E  E  E  E  E  E  E   
--------------------------|--------------------------|
--2--------3--2-----------|--2--------2--5-----------|
--------1--------2--1-----|--------1--------2--1-----|
-----4--------------------|-----4--------------------|
-----------------------4--|-----------------------4--|
--------------------------|--------------------------|


  E  E  E  E  E  E  E  E     E  E  E  E  E  E  E  E   
--------------------------|--------------------------|
--2--------3--2-----------|--2--------3--2-----------|
--------1--------2--1-----|--------1--------2--1-----|
-----4--------------------|-----4--------------------|
-----------------------4--|-----------------------4--|
--------------------------|--------------------------|


  E  E  E  E  E  E  E  E     E  E  E  E  E  E  E  E   
--------------------------|--------------------------|
--2--------3--2-----------|--2--------3--2-----------|
--------1--------2--1-----|--------1--------2--1-----|
-----4--------------------|-----4--------------------|
-----------------------4--|-----------------------4--|
--------------------------|--------------------------|


  E  E  E  E  E  E  E  E     E  E  E  E  E  E  E  E   
--------------------------|--------------------------|
--2--------3--2-----------|--2--------3--2-----------|
--------1--------2--1-----|--------1--------2--1-----|
-----4--------------------|-----4--------------------|
-----------------------4--|-----------------------4--|
--------------------------|--------------------------|


  E  E  E  E  E  E  E  E     E  E  E  E  E  E  E  E   
--------------------------|--------------------------|
--2--------3--2-----------|--2--------3--2-----------|
--------1--------2--1-----|--------1--------2--1-----|
-----4--------------------|-----4--------------------|
-----------------------4--|-----------------------4--|
--------------------------|--------------------------|


  E  E  E  E  E  E  E  E     E  E  E  E  E  E  E  E   
--------------------------|--------------------------|
--2--------3--2-----------|--2--------3--2-----------|
--------1--------2--1-----|--------1--------2--1-----|
-----4--------------------|-----4--------------------|
-----------------------4--|-----------------------4--|
--------------------------|--------------------------|


  E  E  E  E  E  E  E  E    
--------------------------||
--2--------3--2-----------||
--------1--------2--1-----||
-----4--------------------||
-----------------------4--||
--------------------------||




Duration Legend
---------------
W - whole
H - half
Q - quarter
E - 8th
S - 16th
T - 32nd
X - 64th
. - note dotted
|-n-|  - n-tuplets


Tablature Legend
----------------
L - tied note
x - dead note
g - grace note
(n) - ghost note
> - accentuded note
NH - natural harmonic
AH - artificial harmonic
TH - tapped harmonic
SH - semi harmonic
PH - pitch harmonic
h - hammer on
p - pull off
b - bend
br - bendRelease
pb - preBend
pbr - preBendRelease
Tap to rate this tab
 
# A B C D E F G H I J K L M N O P Q R S T U V W X Y Z