Song name
# A B C D E F G H I J K L M N O P Q R S T U V W X Y Z

Tnt - Just Like God tab

                      "Just Like God" by TNT

Artist : TNT
Song   : Just Like God
Album  : Transistor
Tuning : Eb, Ab, Db, Gb, Bb, Eb.


    Intro (Clean Tone)
Eb|-0---0---0---0----|
Bb|-3---3---3---3----|
Gb|-2---2---2---2----|
Db|------------------|
Ab|------------------|
Eb|------------------|

 1st Verse
|-----------------------------------------------------------|
|-----------------------------------------------------------|
|------.--------------2-2-3-4----------.--------4--2-2-3-4--|
|------4--------2-x-x-2-2-3-4----------4--------4--2-2-3-4--|
|-6~---4---4~-------------------0-6~-------4~---------------|
|------------------------------PM---------------------------|

|---------------------------------------------------------|
|---------------------------------------------------------|
|------.------------2-2-3-4----------.--------4--2-2-2-4--|
|------4--------2---2-2-3-4----------4--------4--2-2-2-4--|
|-6~-------4~-----------------0-6~------0-4~--------------|
|----------------------------PM--------PM-----------------|

|----------------------------------------------------------|
|----------------------------------------------------------|
|------.-------------2-2-3-4----------.--------2--2-2-3-4--|
|------4---------2---2-2-3-4----------4--------2--2-2-3-4--|
|-6~------0-4~-----------------0-6~-------4~---------------|
|--------PM-------------------PM---------------------------|

|------------------------------|
|------------------------------|
|------.--------2---2-2-3-4~---|
|------4--------2---2-2-3-4~---|
|-6~---4---4~------------------|
|------------------------------|

 1st Pre-Chorus
|----------------------------------------------------------------|
|----------------------------------------------------------------|
|-----------2-2-2-4----------4----2-2-3-4---------4----2-2-3-4---|
|-----------2-2-2-4----------4----2-2-3-4---------4----2-2-3-4---|
|-6/7\6\4------------0-/6~------0----------0-/6~-----0-----------|
|-------------------PM---------PM---------PM--------PM-----------|

|----------------------------------------------|
|----------------------------------------------|
|------------2-2-3-4-----------2-2-3-4~--------|
|------4-----2-2-3-4-----------2-2-3-4~--------|
|-/6~----0-0-----------/6~--4--------------x\--|
|-------PMPM-----------------------------------|

 1st Chorus
|---------------------------------------------------------|
|---------------------------------------------------------|
|-2-2----2-2----------7------9-9-9-------2-2----2-2-------|
|-2-2-4--2-2-4--------7------9-9-9-------2-2-4--2-2-4-----|
|-----4------4...-----5------7-7-7-----------4------4...--|
|---------------------------------------------------------|

 2nd Verse
|-----------------------------------------------------------|
|--------------------------------------.--------------------|
|------.----------2---2-2-3-4----------4-----------2-2-3-4--|
|------4----------2---2-2-3-4----------4--------2--2-2-3-4--|
|-6~-----0-0-4~-----------------0-6~-------4~---------------|
|-------PMPM-------------------PM---------------------------|

|-----------------------------------------------------------|
|-----------------------------------------------------------|
|------.--------------2-2-3-4----------.--------2--2-2-2-4--|
|------4----------2---2-2-3-4----------4--------2--2-2-2-4--|
|-6~-----0-0-4~-----------------0-6~-----0-0-4~-------------|
|-------PMPM-------------------PM-------PMPM----------------|

|--------------------------------------------------------------|
|--------------------------------------.-----------------------|
|------.---------2----2-2-3-4----------4--------2-----2-2-3-4--|
|------4---------2----2-2-3-4----------4--------2-----2-2-3-4--|
|-6~-----0-0-4~-----0-----------0-6~-------4~-----0-0----------|
|-------PMPM-------PM----------PM----------------PMPM----------|

|--------------------------------|
|------.-------------------------|
|------4----------2---2-2-3-4~---|
|------4----------2---2-2-3-4~---|
|-6~-----0-0-4~------------------|
|-------PMPM---------------------|

 2nd Pre-Chorus
|----------------------------------------------------------------|
|----------------------------------------------------------------|
|-----------2-2-2-4----------4----2-2-3-4---------4----2-2-3-4---|
|-----------2-2-2-4----------4----2-2-3-4---------4----2-2-3-4---|
|-6/7\6\4------------0-/6~------0----------0-/6~-----0-----------|
|-------------------PM---------PM---------PM--------PM-----------|

|----------------------------------------------|
|----------------------------------------------|
|------------2-2-3-4-----------2-2-3-4~--------|
|------4-----2-2-3-4-----------2-2-3-4~--------|
|-/6~----0-0-----------/6~--4--------------x\--|
|-------PMPM-----------------------------------|

 2nd Chorus
|------------------------------------------------------------|
|------------------------------------------------------------|
|-2-2----2-2----------7------9-------2-2----2-2----2-2---2---|
|-2-2-4--2-2-4--------7------9-------2-2-4--2-2-4--2-2-4-2---|
|-----4------4...-----5------7-----------4------4------4-----|
|------------------------------------------------------------|

|-----------------------------------------------------|
|-----------------------------------------------------|
|-2-2----2-2----------7------9-------2-2----2-2-------|
|-2-2-4--2-2-4--------7------9-------2-2-4--2-2-4-----|
|-----4------4...-----5------7-----------4------4...--|
|-----------------------------------------------------|

 Guitar Solo
|-/12~------9----10-------------------------------------------------|
|-------------12----12-12~----10-12~---14-10-12--12~----14-10-12~---|
|-------------------------------------------------------------------|
|-------------------------------------------------------------------|
|-------------------------------------------------------------------|
|-------------------------------------------------------------------|

  |-> Machine gunning (i'm unsure about this. dont trust it.)
|-----------------------------------------------------------------|
|-----------------------------------------------------------------|
|-----------------------------------------------------------------|
|-9-10-11-10-9-8-8-9-10-9-8-7-7-8-9-8-7-6-6-7-8-7-6-5-5-6-7-6-5-4-|
|-----------------------------------------------------------------|
|-----------------------------------------------------------------|

     MG <-|                                               .
|------------------9----9--.------------.----------------12--|
|--------------------12---10--10~---12-12--12~---10---12-----|
|-----------/6~----------------------------------------------|
|-4-5-6-5-4--------------------------------------------------|
|------------------------------------------------------------|
|------------------------------------------------------------|

|------9------------------------------------------------|
|-12-------10-------14--13---13bq/--12bq/--11bq/--10~---|
|-------------11----13--12---12bq/--11bq/---------------|
|-------------------------------------------------------|
|-------------------------------------------------------|
|-------------------------------------------------------|

 Backing guitar during solo
|---------------------------------------------------|
|---------------------------------------------------|
|-2-2---2--------2---2--2--2--2----------4-----2-2--|
|-2-2---2--------2---2--2--2--2----------4-----2-2--|
|---------------------------------------------------|
|------------222----------------0---2bq/----2-------|

|---------------------------------------------------|
|---------------------------------------------------|
|-2--2---2---2-----2-2-2----2--2----2--2----2-2-2---|
|-2--2---2---2-----2-2-2----2--2----2--2----2-2-2---|
|---------------------------------------------------|
|---------------------------------------------------|

|---------------------------------------------------|
|---------------------------------------------------|
|-2-2----2---------2---2---2--2---2----------2--2---|
|-2-2-4--2----4-4--2---2---2--2---2-4----4---2--2---|
|-----4-------4-4-------------------4----4----------|
|---------------------------------------------------|

|------------------------------------------|
|------------------------------------------|
|-2---2---2--2--2-----2------2--2--2-2-2---|
|-2---2---2--2--2-4---2--4---2--2--2-2-2---|
|-----------------4------4-----------------|
|------------------------------------------|

 Last Pre-Chorus
|--------------------------------------|
|--------------------------------------|
|-|>    x4    <|-----------------------|
|-----4-----------------4--------------|
|-6------2-2-3-4----6------2-2-3-2-----|
|--------------------------------0-----|
|
| Overdubbed guitar
|-------------------------------------|
|-|>    x4    <|----------------------|
|-2---4--2-2-3-4----2---4--2-2-3-4~---|
|-------------------------------------|
|-------------------------------------|
|-------------------------------------|

 Last Chorus (Repeat the next line)
|-----------------------------------------------------|
|-----------------------------------------------------|
|-2-2----2-2----------7------9-------2-2----2-2-------|
|-2-2-4--2-2-4--------7------9-------2-2-4--2-2-4-----|
|-----4------4...-----5------7-----------4------4...--|
|-----------------------------------------------------|

 Guitar at CD time : 3'06" (Repeat until the end)
|-/12~---9-------------|
|----------12-10~\-----|
|----------------------|
|----------------------|
|----------------------|
|----------------------|
|
|----------------------|
|----------------------|
|----------------------|
|-/7~----4-------------|
|----------7-5~\-------|
|----------------------|


 * Legend *
/  = Slide up
\  = Slide down
h  = Hammer-on
p  = Pull-off
~  = Vibrato
.  = Staccato
PM = Palm Mute
b?/ = Bend : ? represents how many steps to bend
        bh/   = Bend a 'half' step
        b1/   = Bend a whole step
        b1.5/ = Bend whole and a half steps


_________     _________
\  __ __ \   / __ __  /
 \ \| | \/\ |\/ | |/ /
  \ | | |  \| | | | /
   \| | | |\  | | |/
    |_|\|_| |_|/|_|
       \\     //
        \\   //
          \v/
  T R A N S I S T O R
Tap to rate this tab
# A B C D E F G H I J K L M N O P Q R S T U V W X Y Z