Song name
# A B C D E F G H I J K L M N O P Q R S T U V W X Y Z

Tnt - Caught Between The Tigers tab

"Caught Between The Tigers" by TNT

Song   : Caught Between The Tigers
Album  : Intuition
Tuning : A half step lower

Shuffle rhythm

Intro    |-> Palm mute       <-|          |->         Palm mute        <-|
Eb|-------------------------------------------------------------------------|
Bb|-------------------------------------------------------------------------|
Gb|-------------------------------------------------0h2h4p2-----------------|
Db|------------------------------------ph-------------------0h2h4p2---------|
Ab|-x-5--7-0--4-5--0-2--3-0--1-2-------5--7-0--4-5------------------0h2h3p2-|
Eb|-------------------------------3-0---------------------------------------|3~

                                                            (x2)
|-----------------------------------------------------------|
|-----------------------------------------------------------|
|-----------------------------------------------------------|
|-----------------------------------------------------------|
|-5--7-0--4-5--0-2--3-0--1-2-------5--7-0--4-5--0-2--4------|
|-----------------------------3-0----------------------3--3-|

1st verse
|-----------------------------------------------------|
|-(repeat)--------------------------------------------|
|-2-2---2-2-----2-2----7-7-----------------------4----|
|-2-2---2-2-----2-2----7-7----5-5----------------4----|
|-0-0---0-0-----0-0----5-5----5-5----0--0-3-2----2----|
|-----------------------------3-3-------------3-------|

Pre-chorus
|------------------------------------------------------------------------|
|-(repeat)----------7---7---5---5-----(repeat)------7---7----------------|
|-4-----------6-----6---6---4---4-----4--------6----6---6----------------|
|-4-----------6-----------------------4--------6-------------------------|
|-2-2---------4-4-----4---4---4---4---2-2------4-4----4---4----2---------|
|---pm----------pm----pm--pm--pm--pm----pm-------pm---pm--pm------2--3~--|

Chorus
|---------------------------------------------------------------------|
|---------------------------------------------------------------------|
|---------------------------------------------------------------------|
|-------------------PH---------Arm up---------------------------------|
|---------------2/4-4~------<3>/---------------4---4/9------2/4-x-4---|
|--4---7---x\-----------2/4------------4---6-----------7-7----------2-|
           |                                           pmpm
   After playing B power chord, move your left hand toward pickups
   then slide your middle finger down from about 19th fret on 6th
   string toward the head.

|-------------------------------------------------|
|-------------------------------------------------|
|-------------------------------------------------|
|-------------------PH---------Arm up-------------|
|---------------2/4-4~------<3>/---------------4--|
|--4---7---x\-----------2/4------------4---6------|


|-----------------------------------------------------------|
|-----------------------------------------------------------|
|-----------------------------------------------------------|
|-----------------------------------------------------------|
|-5--7-0--4-5--0-2--3-0--1-2-------5--7-0--4-5--0-2--4------|
|-----------------------------3-0----------------------3--3-|

2nd verse
|--------------------------------------------------------------------------|
|-(repeat)-----------------------------------------------------------------|
|-2-2---2-2-----2-2----7-7-----------4-4-----------------------------------|
|-2-2---2-2-----2-2----7-7----5-5----4-4-----------------------------------|
|-0-0---0-0-----0-0----5-5----5-5----2-2--5--7-0--4-5--0-2--3-0--1-2-------|
|-----------------------------3-3-------------------------------------3-0--|

|--------------------------------------------------------|
|--------------------------------------------------------|
|-7---9---2-2----------------2--0h2p0------2--0h2p0----5-|
|-7---9---2-2---------------------------------------2----|
|-5---7---0-0---arm down---0----------0-0----------------|
|--------------x\----------------------------------------|

Repeat pre-chorus

Repeat chorus


Solo             |-> Machinegun technique <-|                       w/ arm
|---------------------------------------------21bh/---20-19-17-15-17~------|
|---------------------------------------------------x----------------------|
|-------ph&dive---/16\-/17\-/16\-etc---------------x-----------------------|
|-------3------------------------------------------------------------------|
|-4--3-----------------------------------0---------------------------------|
|--------------------------------------------------------------------------|

|-20--20-17--------------------------------------------------------------------|
|-20--20-17-20-17--20--20-17---------------------------------------8-10/13-----|
|-----------19-17--19--19-17-19-17-19------------------------5-7/9-------------|
|----------------------------19-17-19-------------------5-7--------------------|
|----------------------------------------0~---2-3-5/7~-------------------------|
|------------------------------------------------------------------------------|
                                             pmpm       pmpm

     |-> with palm mute
|------------------------------------------------------------------------------|
|------------------------------------------------------------------------------|
|-----------------------------------------------6-4-6--7-6-7--9-7-9--11-9-11---|
|-ph-----------------------5-4-5--7-5-7--9-7-9---------------------------------|
|-5---5-4-5--7-5-7--9-7-9------------------------------------------------------|
|------------------------------------------------------------------------------|

|---------------------------9-7-9--11-9-11--12-11-12--14-12-14--16-14-16--|
|-8-7-8--10-8-10--12-10-12------------------------------------------------|
|-------------------------------------------------------------------------|
|-------------------------------------------------------------------------|
|-------------------------------------------------------------------------|
|-------------------------------------------------------------------------|

       <-|
|-17-16-17--19b1/--19-16----16----16-17-19b1/\-17-16----16--------------------|
|------------------------19--------------------------19----17-19-16-17-16-14--|
|-----------------------------------------------------------------------------|
|-----------------------------------------------------------------------------|
|-----------------------------------------------------------------------------|
|-----------------------------------------------------------------------------|

Repeat chorus and fade out...


  * Legend *
/  = Slide up
\  = Slide down
h  = Hammer-on
p  = Pull-off
~  = Vibrato
PM = Palm Mute
x  = Muted tone
<> = Natural harmonic
PH = Picking harmonic (Artificial harmonic)
T  = Right hand tapping
.  = Stuccarto
b?/ = Bend : ? represents how many steps to bend
        bh/   = Bend a 'half' step
        b1/   = Bend a whole step
        b1.5/ = Bend whole and a half steps
b?\ = Release : ? represents how many steps to release.  If no number is
                  present, release it to the original pitch.  This notation
                  could be just '\' as in bh/ \ / for bending, releasing to
                  the original pitch, then bending again


       \\     //        TNT : Tony Harnell   (Lead & Harmony vocals)
        \\   //               Ronni Le Tekro (Guitars, vocals)
         \\v//                Morty Black    (Bass guitar)
Tap to rate this tab
# A B C D E F G H I J K L M N O P Q R S T U V W X Y Z