Song name
# A B C D E F G H I J K L M N O P Q R S T U V W X Y Z

Tnt - Take Me Down Fallen Angel tab

Help us improve GuitareTab! Take a short survey!
   "Take Me Down (Fallen Angel)" by TNT

Song   : Take Me Down (Fallen Angel)
Album  : Intuition
Tuning : A half step lower


Intro - Palm mute on 5th string                      |->palm mute<-|
Eb|---------------------------------------------------------------------|
Bb|---------------------------------------------------------------------|
Gb|-9----9---9-9---6-----6---6-6-6-2-----2---2-2-2----------------------|
Db|-9----9---9-9---6-----6---6-6-6-2-----2---2-2-2----------------------|
Ab|----7---7-----7---4-4---4---------0-0---0----------------------------|
Eb|------------------------------------------------4--4-4-4-4--4-4-2-0--|

                                               |->Palm mute<-|
|-------------------------------------------------------------------|
|-------------------------------------------------------------------|
|-9---9-9---6-----6---6-6-6-2-----2---2-2-2-------------------------|
|-9---9-9---6-----6---6-6-6-2-----2---2-2-2-------------------------|
|---7-----7---4-4---4---------0-0---0-------------------------------|
|-------------------------------------------4--4-4-4-4--4-4-4-2~----|

Verse
|--------------------------------------------------------------------|
|-8-----------------8------------------------------------------------|
|-7-----7--6--5-----7-----7--6-----5-----5---5-------5----5-5---7----|
|-5-----------------5--------------5-----5---5-------5----5-5---7--\-|
|-------------------------------3----3-3---3---3-3-3---33------------|
|-----------------------------------pmpm--pm--pmpmpm---pm------------|

Pre-chorus      |->clean tone arpeggio<-|
|-------------------0-----------0----------------------------|
|-----------------------0----4-------4---------7-------------|
|-----------------2----------------4---4-------6-------------|
|---------------2------------------------------4-------------|
|-2-/-4---3---0------------2---2----------4---------0----2---|
|------------------------------------------------------------|

Chorus
  Repeat Intro part, then
|--------------|
|--------------|
|--------------|
|--------------|
|-0------------|
|-------2------|

Repeat verse, pre-chorus, and chorus.

Before another chorus, play this.

  ~ spread your wings tonight  (Take me down)~
|----------------------------------------------|
|----------------------------------------------|
|---------------------------------------9----9-|
|---------------------------------------9----9-|
|---------------------------22-2-2-4-------7---|
|---------------4-----4--4---------------------|
                      |->palm mute<-|

Guitar solo
|-----------------with arm-------------------14-15---17b1/-------------16b/|
|-------------8-10~---------13-15-15b/-\/-\-----------------15-17b/-\------|
|-7-9b/-\/\-9--------------------------------------------------------------|
|--------------------------------------------------------------------------|
|--------------------------------------------------------------------------|
|--------------------------------------------------------------------------|
|                                                                           |
|harmony part                                                               |
|--------------------------------------------17-19---20b1/-------------19b/|
|-----------------------------------------------------------17-19b/-\------|
|--------------------------------------------------------------------------|
|--------------------------------------------------------------------------|
|--------------------------------------------------------------------------|
|--------------------------------------------------------------------------|

                Right hand tap on this note, then slide down to the next note
                                              |
|----------------14-15------------------------|---------------------------------|
|-13-15c/-\/\-15--------15-13-12--------------v----/12-xxx-/10xxx/8xxx/7xxx-----|
|--------------------------------12-7-5-4-5-7-12\9------------------------------|
|---------------------------------------------T---------------------------------|
|---------------------------------------------|---------------------------------|
|---------------------------------------------|---------------------------------|
|                                             |
|harmony part                                 --|
|----------------17-19--------------------------|-------------------------------|
|-17-19c/-\/\-19--------19-17-16----------------v-------------------------------|
|--------------------------------16-11-9-8-9-11-16\13---------------------------|
|-----------------------------------------------T-------------------------------|
|-------------------------------------------------------------------------------|
|-------------------------------------------------------------------------------|

|-------------------15-14-15~with arm--12-/-16-\-9--/-14-\-7-/12-\-5-/-9---|
|---------------/15-15-15-15~----------12-/-17-\-10-/-16-\-9-/14-\-7-/-12--|
|-\5--5-\-2-2---/14--------------------------------------------------------|
|--------------------------------------------------------------------------|
|--------------------------------------------------------------------------|
|--------------------------------------------------------------------------|

|--9-11-12-11-9---------------------------------------------------|
|----------------12-10-9--7-p5-h7-p5-h7-p5--7-~-------------------|
|---------------------------------------------^-------------------|
|---------------------------------------------|-------------------|
|---------------------------------------------|-------------------|
|--------------------------------push down whammy bar a few times-|
|                                                                 |
|harmony part                                 |                   |
|-12-14-16-14-12------------------------------v-------------------|
|----------------16-14-12-12p11h12p11h12p11-12~-------------------|
|-----------------------------------------------------------------|
|-----------------------------------------------------------------|
|-----------------------------------------------------------------|
|-----------------------------------------------------------------|

then intro part again and "I can feel it now..." part.
The key changes (a whole step higher) and the song repeats chorus
below and fade out.

 palm mute on 5th string
|---------------------------------------------------------------------|
|---------------------------------------------------------------------|
|-11----11---11-11---8-----8---8-8---4-----4---4-4--------------------|
|-11----11---11-11---8-----8---8-8---4-----4---4-4------|palm mute|---|
|-----9----9-------9---6-6---6-----6---2-2---2-----2-1--1-1-1-1-1-----|
|-----------------------------------------------------------------4-2-|


 * Legend *
/  = Slide up
\  = Slide down
h  = Hammer-on
p  = Pull-off
~  = Vibrato
PM = Palm Mute
x  = Muted tone
T  = Right hand tapping
b?/ = Bend : ? represents how many steps to bend
        bh/   = Bend a 'half' step
        b1/   = Bend a whole step
        b1.5/ = Bend whole and a half steps
b?\ = Release : ? represents how many steps to release.  If no number is
                  present, release it to the original pitch.  This notation
                  could be just '\' as in bh/ \ / for bending, releasing to
                  the original pitch, then bending again


       \\     //        TNT : Tony Harnell   (Lead & Harmony vocals)
        \\   //               Ronni Le Tekro (Guitars, vocals)
         \\v//                Morty Black    (Bass guitar)
Related for Take Me Down Fallen Angel tab