Song name
# A B C D E F G H I J K L M N O P Q R S T U V W X Y Z

Tnt - Klassisk Romance tab

  "Klassisk Romance" by TNT

Song   : Klassisk Romance
Album  : Knights Of The New Thunder
Tuning : A half a step lower

Free tempo
                            ^     >                        >
Eb|-------------3---3/7------^7-5-7-8-7-5-----5---2-5-3-/5p3-2h3p2p0-|
Bb|---^5------5---5-----8---^5------8-7---5-------3-7-0--------------|
Gb|--^4-----4---------------5-----5---------5---2--------------------|
Db|--2----2----------------^------------5-----0----------------------|
Ab|-^----------------------0-----------------------------------------|
Eb|-0----------------------------------------------------------------|

|-7-----7\3---7---0-----0-3-------3-----3-2---2-2-|
|-----0-----0---------0-------0-------1-----1-----|
|---0-----0---2/4-------0---0---0---0-------0-0-0-|
|-------------------2-----2---------------------x-|
|---------------------------------0---------------|
|-0---------------0-------------------------------|

                                     ^
|-7h10p7-10-10/12-------->--------^-<12>-----------|
|-----------------10-8---7h8p7\5-<12>--------------|
|----------------------8-----------------0-4---9---|
|--------7--11-------------------------------------|
|-9------------------------------------------------|
|--------------------7-----------------------------|

        ^
|-0----^7-10-10/12-19---17-------15-15-------|
|-----^8------8------------15-15-------13-13-|
|---0-9----9----------x-------------------11-|
|-----------------------------------16-------|
|------------------------0----15-------------|
|-0------------------------------------------|

                               ^
|----15-15-------14-14/15-----^7-----------7-----7---7-|
|-13-------12--0-------------^7--7---------5/7-5-------|
|----------14-12----12-------7-----7-----0---------0---|
|-------11----------------11---------5-4---------------|
|----12------------------------------------------------|
|-14---------------------------------------------------|

|--^7-10-10/12-12-12/15-15-15---17--------15-15----------|
|-^8---8-12----------------12------15-15\-------13-13----|
|-9------------12-------12---------0------12-11--0----11-|
|-----------------14----------x-------10-----------10----|
|--------------------------------------------------------|
|--------------------------------------------------------|

|----15-15/-------14-14h15p14-14-12----------|
|-13--------12--0-----------------0----------|
|-----------14-12----11-------------------7--|
|-------11--------------------10------4-5----|
|----12--------------------------------------|
|-14--------------------------------0--------|


 * Legend *
/  = Slide up
\  = Slide down
h  = Hammer-on
p  = Pull-off
~  = Vibrato
x  = Muted tone (noise)
.  = Stuccarto
^  = Downstroke
>  = Accent



       \\     //        TNT : Tony Harnell   (Lead & Harmony vocals)
        \\   //               Ronni Le Tekro (Guitars, vocals)
         \\v//                Morty Black    (Bass guitar)
Tap to rate this tab
# A B C D E F G H I J K L M N O P Q R S T U V W X Y Z