Song name
# A B C D E F G H I J K L M N O P Q R S T U V W X Y Z

Tnt - Ready To Leave tab

Help us improve GuitareTab! Take a short survey!
  "Ready To Leave" by TNT

Song   : Ready To Leave
Alpbm  : Knights Of The New Thunder
Tuning : A half a step lower

Intro (Palm mute)
Eb|-----------------|
Bb|-----------------|
Gb|-----------------|
Db|-------4-2-0-----|
Ab|---2-5-------4-2-|
Eb|-3---------------|

Verse (Palm mute on the 6th string)
                  pmpmpm                       pmpmpm
|----------------------------------------------------------|
|-------8----7-----------------------8----7----------------|
|-------7----7------2---0-4----------7----7------4-----2---|
|-----------------0---0------------------------0---0-0-----|
|----------------------------------------------------------|
|-0-0-0----0-------------------0-000----0------------------|

                  pmpmpm
|------------------------------------------------------------|
|-------8----7-----------------------8----8------------------|
|-------7----7------2---0-4----------7----7------------------|
|-----------------0---0--------------------------------------|
|------------------------------------------------------------|
|-0-0-0----0-------------------0-000----0-----0-2p0-3p0-5p3--|

                  pmpmpm                       pmpmpm
|----------------------------------------------------------|
|-------8----7-----------------------8----7----------------|
|-------7----7------2---0-4----------7----7------4-----2---|
|-----------------0---0------------------------0---0-0-----|
|----------------------------------------------------------|
|-0-0-0----0-------------------0-000----0------------------|

                   pmpmpm
|-------------------------------------------------------------|
|-------8----7-----------------------8----8-------------------|
|-------7----7------2---0-4----------7----7-------2---2---2---|
|-----------------0---0---------------------------2---2---2---|
|-------------------------------------------------0---0---0---|
|-0-0-0----0-------------------0-000----0---------------------|

Chorus (repeat 3 times and a half)
 (Distorted)                           |Palm mute|
|----------------------------------------------------|
|----------------------------------------------------|
|----------------------------------------------------|
|----------------------------------------------------|
|-3--------2---------------------------------2---5---|
|-------------------0------2------3------3-----------|
|(Clean tone arpeggio)
|------3--------3------3------3--------------------|
|--------3--------3------3------3------------------|
|--------------------------------------------------|
|--------------------------------------------------|
|--------------------------------------------------|
|--------------------------------------------------|

Repeat intro and verse

(Get ready!)
|--------------------------------------------------------------|
|----------------------------------------------------12--11----|
|----------------------------------------------------9---9-----|
|--------------------------------------------------------------|
|-------2-3-5-3-2-------2-3-5-3-2-------2-3-5-3-2--------------|
|-0---0-----------1---1-----------3---3-----------0------------|
      |->  pm <-|     |->  pm <-|     |->  pm   <--------------|
|--------------------------------------------------------------|
|--------------------------------------------------------------|
|--------------------------------------------------------------|
|--------------------------------------------------------------|
|-------2-3-5-----ph----2-3-5-3-2-------2-3-5-3-2--arm down----|
|-0---0-------0-3-1---1-----------3---3-----------0\-----------|
      |->  pm <-|     |->  pm <-|     |->  pm <----------------|

Guitar solo copied by Yutaka Uchimura
 (higher part)
|-------------16gh-\-/-19gh-\-/-22c1/~--15-15----------------------------|
|-16gh-\-/------------------------------------15-13---------12-----------|
|----------------------------------------------------14-12------12----14-|
|----------------------------------------------------pm-pm------pm-14----|
|------------------------------------------------------------------pm----|
|------------------------------------------------------------------------|
|(lower part)
|-------------------------------18c1/~-----------------------------------|
|-------------16gh-\-/-21gh-\-/---------15-15----------------------------|
|-16gh-\-/------------------------------------14-12----------------------|
|----------------------------------------------------14-12-12---12-------|
|------------------------------------------------------------------14-15-|
|------------------------------------------------------------------------|

 (higher part)
  |-> Palm mute 2 notes after each slide                              <-|
|-15\12-12-12--13\10-10-10--12\8-8-8--10\7-7-7--8\5-5-5--7\5-3-3--5\1-1-1-|
|-------------------------------------------------------------------------|
|-------------------------------------------------------------------------|
|-------------------------------------------------------------------------|
|-------------------------------------------------------------------------|
|-------------------------------------------------------------------------|
|(lower part)
|-------------------------------------------------------------------------|
|-15\12-12-12--13\10-10-10--12\8-8-8--10\7-7-7--8\5-5-5--7\5-3-3--5\1-1-1-|
|-------------------------------------------------------------------------|
|-------------------------------------------------------------------------|
|-------------------------------------------------------------------------|
|-------------------------------------------------------------------------|

          |->                     Palm Mute                 <-|
|-3--1--0------------------------------------------------------------|
|-3--1--0--------------0h5h7p5p0---------------0h5h7p5p0-------------|
|----------0h5h7p5p0-------------7-0h5h7p5p0-------------5p0\--------|
|--------------------7-----------------------7--------------arm down-|
|--------------------------------------------------------------------|
|--------------------------------------------------------------------|

|------------------------------------------------------------|
|-10b1/^13-b1\---------p8p7h8--------------------------------|
|-------T--Tapping trill-------------------------------------|
|-(After bending the note of the 10th fret for a whote tone,-
|--tap the 13th fret with the edge of your pick and release--|
|-=slowly)---------------------------------------------------|

 (higher part)
|-------------16gh-\-/-19gh-\-/-22c1/~------------------12---15---17-|
|-16gh-\-/-----------------------------12b/\-0--15b1/-0----0----0----|
|--------------------------------------------pm-------pm---pm---pm---|
|--------------------------------------------------------------------|
|--------------------------------------------------------------------|
|--------------------------------------------------------------------|
|(lower part)
|-------------------------------18c1/~-------------------------------|
|-------------16gh-\-/-21gh-\-/--------------------------------------|
|-16gh-\-/-----------------------------------------------------------|
|--------------------------------------------------------------------|
|--------------------------------------------------------------------|
|--------------------------------------------------------------------|

|-0h12h14h15h19p15p14p12h17p12--14----------------------<12>~ w/arm-|
|------------T---------------------15-12-15-17----------------------|
|-------------------------------------------T-----------------------|
|----------------------------------------------12h14p12-11h12~------|
|-------------------------------------------------------------------|
|-------------------------------------------------------------------|

|-16bh/~----------16b1.5/-\~------|
|---------------------------------|
|---------------------------------|
|---------------------------------|
|---------------------------------|
|---------------------------------|
  (Another guitar repeats the riff before the guitar solo)

 |-> Machine gun technique (Don't trust this too much :)
|---------------------------------------------------------------------|
|-12-12-12-12-12-12-13-12-12-9-9-9-9-9-9-9-10-12-10-9-5-5-5-5-5-5-6-9-|
|---------------------------------------------------------------------|
|---------------------------------------------------------------------|
|---------------------------------------------------------------------|
|---------------------------------------------------------------------|

                  <-|     |-> Pick harmonic on 5th
|-------------------------    string and PM on 6th <----|
|-5-5-5-5-5-5-5-6-9-5~----------------------------------|
|-------------------------------------------------------|
|-------------------------------------------------------|
|--------------------------7-----5---7---5-7-----5---7--|
|------------------------------0---0-----------0---0----|

  |->       Machine gun technique       <-|
|-------------------------------------------10b1/-\--|
|-------5-6-9-6-5-----------5-6-9-6-5-6-9-6-10b1/-\--|
|-4-5-8-----------8-5-4-5-8--------------------------|
|----------------------------------------------------|
|----------------------------------------------------|
|----------------------------------------------------|

 Repeat chorus


 * Legend *
/  = Slide up
\  = Slide down
h  = Hammer-on
p  = Pull-off
~  = Vibrato
PM = Palm Mute
x  = Muted tone
PH = Picking harmonic (Artificial harmonic)
T  = Right hand tapping
^  = Trill
b?/ = Bend : ? represents how many steps to bend
        bh/   = Bend a 'half' step
        b1/   = Bend a whole step
        b1.5/ = Bend whole and a half steps
b?\ = Release : ? represents how many steps to release.  If no number is
                  present, release it to the original pitch.  This notation
                  could be just '\' as in bh/ \ / for bending, releasing to
                  the original pitch, then bending again

_________     _________
\  __ __ \   / __ __  / Yutaka Uchimura
 \ \| | \/\ |\/ | |/ /  The TNT Mailing List Administrator
  \ | | |  \| | | | /   yutaka@twave.net
   \| | | |\  | | |/    http://users.twave.net/yutaka/tnt.html
    |_|\|_| |_|/|_|
       \\     //        TNT : Tony Harnell   (Lead & Harmony vocals)
        \\   //               Ronni Le Tekro (Guitars, vocals)
          \v/                 Morty Black    (Bass guitar)
                        "When I'm tripping down, Got my sky turned around,
     F I R E F L Y      I can almost feel my feet above the ground" - Tripping

Guitar solo copied by Andrew Hoag
    (w/bar)
e:|--------17\/--20\/--22^~~~-------15-19-15--------------------------|
B:|--17\/-------------------------15---------15-------15--------------|
G:|-----------------------------16--------------17-14----16-------14~~|
D:|---------------------------------------------------------17-14-----|
A:|-------------------------------------------------------------------|
E:|-------------------------------------------------------------------|
  |(Harmony)                                                          |
e:|--------12\/--17\/--18^~~~--------7-10--7--------------------------|
B:|--13\/--------------------------8----------8--------6--------------|
G:|------------------------------7---------------9--5-----7--------5~~|
D:|----------------------------------------------------------9--5-----|
A:|-------------------------------------------------------------------|
E:|-------------------------------------------------------------------|

e:|-12-10-8-7-10-8-7-5-8-7-5---7-5-----5------------------------------|
B:|--------------------------8-----8-6---8-6-5-8-6-5---6-5-----5------|
G:|--------------------------------------------------7-----7-5---7-5-0|
D:|-------------------------------------------------------------------|
A:|-------------------------------------------------------------------|
E:|-------------------------------------------------------------------|
  | (Harmony)                                                         |
e:|--8--7-5----7-5-----5----------------------------------------------|
B:|---------8------8-6---8-6-5-8-6-5---6-5-----5----------------------|
G:|----------------------------------7-----7-5---7-5-4-7-5-4-2-5-4-2-0|
D:|-------------------------------------------------------------------|
A:|-------------------------------------------------------------------|
E:|-------------------------------------------------------------------|

                                                     (W/bar)
e:|---------------------------------------------------------|
B:|-------------0-5-7-5-0---------------0-5-7-5-0-----------|
G:|-0-5-7-5-0-------------7-0-5-7-5-0-------------7-0\/-----|
D:|-----------7-----------------------7---------------------|
A:|---------------------------------------------------------|
E:|---------------------------------------------------------|


         full  (Hold bend and tap with pick edge...            Release)
e:|-----^------------------------------------------------------------------|
B:|-8--10-----13-10-13-10-13-10-13-10-13-10-13-10-13-10-13-10-13-10-8-7-8~-|
G:|------------------------------------------------------------------------|
D:|------------------------------------------------------------------------|
A:|------------------------------------------------------------------------|
E:|------------------------------------------------------------------------|

    (with bar)
e:|--------12\/--15\/--19^~~~-|--------------------------------15-------17-|
B:|--12\/---------------------|------12------15--0-12-17--0-12-----0-12----|
G:|---------------------------|--0-9----0-12-------------------------------|
D:|---------------------------|--------------------------------------------|
A:|---------------------------|--------------------------------------------|
E:|---------------------------|--------------------------------------------|
  | (Harmony)                 |
e:|---------7\/--12\/--14^~~~-|
B:|---8\/---------------------|
G:|---------------------------|
D:|---------------------------|
A:|---------------------------|
E:|---------------------------|

e:|--12-14-15-19-15-14----17-----------------------------------------------|
B:|--------------------17----17-15-19-15----17-----------------------------|
G:|--------------------------------------16----16-14-16-14-----------------|
D:|--------------------------------------------------------17-16-17~~~-----|
A:|------------------------------------------------------------------------|
E:|------------------------------------------------------------------------|

    1 1/2
e:|16^~~~--------------------------------------------------------------------|
B:|----12-12-12-12-12-13-16-12-13-16-12-12-9-10-13-9-10-13-------------------|
G:|-------------------------------------------------------9-10-13-9-10-13-9~-|
D:|--------------------------------------------------------------------------|
A:|--------------------------------------------------------------------------|
E:|--------------------------------------------------------------------------|

    (Pick Harmonics)
e:|--------------------------------------------------|
B:|--------------------------------------------------|
G:|--------------------------------------------------|
D:|-----^-----^-----^-----^--^-----^-----^-----^-----|
A:|-----7-----5-----7-----5--7-----5-----7-----7/----|
E:|--0-----0-----0-----0--------0-----0-----0--------|

                                                (dive with bar)
e:|--------------------------------------10^~~~~~\-------------------------|
B:|--------5-6-9-6-5-6-9-6-9-6-5---5-6-9-10^~~~~~\-------------------------|
G:|--4-5-8-----------------------8-----------------------------------------|
D:|------------------------------------------------------------------------|
A:|------------------------------------------------------------------------|
E:|------------------------------------------------------------------------|


Ending Riff:
|--------------------------------------------------------------------------|
|--------------------------------------------------------------------------|
|--------------------------------------------------------------------------|
|---5-------5--5--4--3--2--5--4--3--2--5--4--3---2--5--4--3----------------|
|---5-------5--5--4--3--2--5--4--3--2--5--4--3---2--5--4--3----------------|
|---3-------3--3--2--1--0--3--2--1--0--3--2--1---0--3--2--1----------------|



       \\     //        TNT : Tony Harnell   (Lead & Harmony vocals)
        \\   //               Ronni Le Tekro (Guitars, vocals)
         \\v//                Morty Black    (Bass guitar)
Related for Ready To Leave tab