Song name
# A B C D E F G H I J K L M N O P Q R S T U V W X Y Z

Tnt - As Far As The Eye Can See tab

  "As Far As The Eye Can See" by TNT

Artist : TNT
Song   : As Far As The Eye Can See
Album  : Tell No Tales
Tuning : A half a step lower


    Intro
Eb|----------------------------------------------------------5---5-5--5--5-|
Bb|----------------------------------------------------------5---5-5--5--5-|
Gb|---9--9-----9--9--9-9--9-8-7-5--5-----5--5--5-5--5-4-3-2--2---2-2--2--2-|
Db|---9--9-----9--9--9-9--9-8-7-5--5-----5--5--5-5--5-4-3-2----------------|
Ab|-xx7--7-----7--7--7-7--7-6-5-3--3-----3--3--3-3--3-2-1-0----------------|
Eb|--------000-----------------------000-----------------------------------|

|-------------------------5-7~-|
|-------------------6-5-6------|
|-------2-1-2-5-4-5------------|
|-3-2-3------------------------|
|------------------------------|
|------------------------------|
|
|-------------------5-4-5-7----|
|---------------------------8~-|
|-------------2-1-2---------PH-|
|-------3-2-3------------------|
|-3-2-3------------------------|
|------------------------------|

  Verse (Palm mute on the 6th string)
|-----------------------------------------------------------|
|---------------------------9-9~----------------------------|
|---------------------------7-7~------9-------9-------9\----|
|---------------------------5-5~------9-------9-------9\----|
|-------------------------------------7-------7-------7\-xx-|
|-0-0-0-0-0-0-0-0-0-0-0-0-0-------0-0-----0-0-----8-7-------|

|---------------------------------Harmony--|
|---------------------------------(7--10)--|
|------5-------5-------5-------5-----------|
|------5-------5-------5-------5-----------|
|--3-3-3---3-3-3---3-3-3---3-3-3---5---6---|
|------------------------------------------|

|--------------------------------------------------------|
|---------------------------9-9~-------------------------|
|---------------------------7-7~------9-------9-------9--|
|---------------------------5-5~------9-------9-------9--|
|-------------------------------------7-------7-------7--|
|-0-0-0-0-0-0-0-0-0-0-0-0-0-------0-0-----0-0-----0-0----|

|-------------------------------------------------------------------|
|-------------------------------------------------------------------|
|-----5-------5-------5-------5----------7-------7------------------|
|-----5-------5-------5-------5----------7-------7------------------|
|-3-3-3---3-3-3---3-3-3---3-3-3---55-5-5-5---5-5-5--5-2-0---------5-|
|---------------------------------------------------------3-0--3----|

  Pre-chorus
 Distorted tone
|----------------------------------------------------|
|----------------------------------------------------|
|----------------------------------------------------|
|----------------------------------------------------|
|-3----------------------0-2-3-------3-------5-------|
|---------2-------3----------------------------------|
|
|Clean tone
|----3-------3-------3----------3-------3-------3----|
|------3-------3-------3----------3-------3-------3--|
|----------------------------------------------------|
|----------------------------------------------------|
|----------------------------------------------------|
|----------------------------------------------------|

|-------------------------------|
|-------------------------------|
|-5--5--5-5----7--7--7-7-7-7-7--|
|-5--5--5-5----7--7--7-7-7-7-7--|
|-3--3--3-3----5--5--5-5-5-5-5--|
|-------------------------------|

  Chorus
|------------------------------------------------------------|
|-9--------------6------5---3--------------------------------|
|-7----5----7----5------4---2----5----7----------------------|
|-5----5----7----3------2---0----5----7-----PH------PH-------|
|------3----5--------------------3----5------5-0-----5-0-----|
|------------------------------------------------3-2-----3-2-|
                                                PMPM    PMPM
  2nd Verse
|-----------------------------------------------------------|
|---------------------------9-9~----------------------------|
|---------------------------7-7~------9-------9-------9-----|
|---------------------------5-5~------9-------9-------9-----|
|-------------------------------------7-------7-------7--xx-|
|-0-0-0-0-0-0-0-0-0-0-0-0-0-------0-0-----0-0-----0-0-------|

|-----------------------------------------------------------------------|
|-----------------------------------------------------------------------|
|-----5-------5-------5-------5----------7-------7---------8------------|
|-----5-------5-------5-------5----------7-------7---------8------------|
|-3-3-3---3-3-3---3-3-3---3-3-3---55-5-5-5---5-5-5--66-6-6-6---------5--|
|--------------------------------------------------------------0--3-----|

 Repeat pre-chorus

  2nd Chorus
|-------------------------------------------------------|
|-9--------------6------5---3---------------------------|
|-7----5----7----5------4---2----5----------------------|
|-5----5----7----3------2---0----5----------------------|
|------3----5--------------------3----5-55-5-5-5-5-5-5--|
|-------------------------------------|-> Palm mute<-|--|

|-------------------------------------------------------------------|
|-9---------------------6------5---3--------------------------------|
|-7----5-----------7----5------4---2----5----7----------------------|
|-5----5-----------7----3------2---0----5----7-----PH------PH-------|
|------3---3-2-0---5--------------------3----5------5-0-----5-0-----|
|----------------3--------------------------------------3-2-----3-2-|
                                                       PMPM    PMPM
  Guitar solo
|-20b1/--19-----------20b1/--19-----------20b1/--19--------|
|------------20--17~-------------20--17~-------------20~\--|
|----------------------------------------------------------|
|----------------------------------------------------------|
|----------------------------------------------------------|
|----------------------------------------------------------|

|----Use a pick to do a trill----13-15-17-15-13--------|
|-    |       |       |     | ------------------13-----|
|-10^14---10^16---10^17-10^16----------------------14~-|
|------------------------------------------------------|
|------------------------------------------------------|
|------------------------------------------------------|
|
|--------------------------------17-18-20-18-17--------|
|-----------------------------------------------18-----|
|--------------------------------------------------17~-|
|------------------------------------------------------|
|------------------------------------------------------|
|------------------------------------------------------|

|------------------------------------------------------------------------|
|-15b1/~----15g-\-p12--14bh/-14bh/-14bh/-14bh/--\--<9>\-----15p12~-------|
|-----------------------------------------------------arm--------w/ arm--|
|-----------------------------------------------------down---------------|
|------------------------------------------------------------------------|
|------------------------------------------------------------------------|

|--------------------------------------------------------------------------|
|----------15-----------------------------------------------PH-------------|
|----------14bh/-\p12-14~------12bh/------------------------10~--PH--------|
|-PMPMPM----------------w/arm----------14-12---------------------10~----\--|
|-0-0-0--------------------------------------14-12-12-10-10-------w/arm----|
|--------0-----------------------------------------------------------------|

  Acoustic guitar
|----3-------3-------3--------3--------3-------3-------3--------3----|
|------3-------3-------3--------3--------3-------3-------3--------3--|
|--------------------------------------------------------------------|
|---------0---------------------------------0------------------------|
|-3---------------2-------3---------3---------------2-------3--------|
|--------------------------------------------------------------------|

|----3-------3-------3--------3--------3-------3----|-> w/ distortion--|
|------3-------3-------3--------3--------3-------3---------------------|
|------------------------------------------------------5------7----7\--|
|---------0---------------------------------0----------5------7----7\--|
|-3---------------2-------3---------3---------------PM-3----3-5----5\--|
|---------------------------------------------------3------------------|

|-------------------------------------------------------|
|-9--------------6------5---3---------------------------|
|-7----5----7----5------4---2----5----------------------|
|-5----5----7----3------2---0----5----------------------|
|------3----5--------------------3----5-55-5-5-5-5-5-5--|
|-------------------------------------|-> Palm mute<-|--|

|-------------------------------------------------------------------|
|-9---------------------6------5---3--------------------------------|
|-7----5-----------7----5------4---2----5----7----------------------|
|-5----5-----------7----3------2---0----5----7-----PH------PH-------|
|------3---3-2-0---5--------------------3----5------5-0-----5-0-----|
|----------------3--------------------------------------3-2-----3-2-|
                                                       PMPM    PMPM

 Repeat intro with the line below

|-20b1/--19-----------20b1/--19-----------20b1/--19-----------------------|
|------------20--17~-------------20--17~-------------20--18~---17-18-20~--|
|-------------------------------------------------------------------------|
|-------------------------------------------------------------------------|
|-------------------------------------------------------------------------|
|-------------------------------------------------------------------------|


 * Legend *
/  = Slide up
\  = Slide down
h  = Hammer-on
p  = Pull-off
~  = Vibrato
PM = Palm Mute
PH = Picking harmonic (Artificial harmonic)
<> = Natural harmonic
b?/ = Bend : ? represents how many steps to bend
        bh/   = Bend a 'half' step
        b1/   = Bend a whole step
        b1.5/ = Bend whole and a half steps
b?\ = Release : ? represents how many steps to release.  If no number is
                  present, release it to the original pitch.  This notation
                  could be just '\' as in bh/ \ / for bending, releasing to
                  the original pitch, then bending again
g? = Prebend (Ghost bend) : The number before 'g' is the fret and ?
                            represents how many steps
        10gh  = Bend the 10th fret note for a 'h'alf step THEN pick


       \\     //        TNT : Tony Harnell   (Lead & Harmony vocals)
        \\   //               Ronni Le Tekro (Guitars, vocals)
         \\v//                Morty Black    (Bass guitar)
Tap to rate this tab
# A B C D E F G H I J K L M N O P Q R S T U V W X Y Z