Song name
# A B C D E F G H I J K L M N O P Q R S T U V W X Y Z

To Kill A King - Fictional State tab

Song: Fictional State
Artist: To Kill A King






Capo on the 2nd fret






Vers:


    G

 |---------------------------------------------------|
 |---------------------------------------------------|
 |---------------------------------------------------|
 |---------------------------------------------------|
 |-----2-----2-----2------2-----2-----2-----2-----2--|
 |--3-----3-----3------3-----3-----3-----3-----3-----|


I was not the problem like you were not the cause


    C

 |----------------------------------------------------------|
 |----------------------------------------------------------|
 |----------------------------------------------------------|
 |----------------------------------------------------------|
 |------9------9------9------9------9------9------9------9--|
 |--10-----10-----10-----10-----10-----10-----10-----10-----|


    G

 |---------------------------------------------------|
 |---------------------------------------------------|
 |---------------------------------------------------|
 |---------------------------------------------------|
 |-----2-----2-----2------2-----2-----2-----2-----2--|
 |--3-----3-----3------3-----3-----3-----3-----3-----|


We're sinking on a ship we said we'd jump two weeks before


    C

 |----------------------------------------------------------|
 |----------------------------------------------------------|
 |----------------------------------------------------------|
 |----------------------------------------------------------|
 |------9------9------9------9------9------9------9------9--|
 |--10-----10-----10-----10-----10-----10-----10-----10-----|


    G

 |---------------------------------------------------|
 |---------------------------------------------------|
 |---------------------------------------------------|
 |---------------------------------------------------|
 |-----2-----2-----2------2-----2-----2-----2-----2--|
 |--3-----3-----3------3-----3-----3-----3-----3-----|


And I'll admit my subsequent words had no force

    C

 |----------------------------------------------------------|
 |----------------------------------------------------------|
 |----------------------------------------------------------|
 |----------------------------------------------------------|
 |------9------9------9------9------9------9------9------9--|
 |--10-----10-----10-----10-----10-----10-----10-----10-----|


I had every intention just to leave you at the door

    G

 |---------------------------------------------------|
 |---------------------------------------------------|
 |---------------------------------------------------|
 |---------------------------------------------------|
 |-----2-----2-----2------2-----2-----2-----2-----2--|
 |--3-----3-----3------3-----3-----3-----3-----3-----|


My mundane future was tugging at my sleeve

    C

 |----------------------------------------------------------|
 |----------------------------------------------------------|
 |----------------------------------------------------------|
 |----------------------------------------------------------|
 |------9------9------9------9------9------9------9------9--|
 |--10-----10-----10-----10-----10-----10-----10-----10-----|


Of babies and changings and midnight feeds

    G

 |---------------------------------------------------|
 |---------------------------------------------------|
 |---------------------------------------------------|
 |---------------------------------------------------|
 |-----2-----2-----2------2-----2-----2-----2-----2--|
 |--3-----3-----3------3-----3-----3-----3-----3-----|


If every father in the world thought the same as me

    C

 |----------------------------------------------------------|
 |----------------------------------------------------------|
 |----------------------------------------------------------|
 |----------------------------------------------------------|
 |------9------9------9------9------9------9------9------9--|
 |--10-----10-----10-----10-----10-----10-----10-----10-----|


What a state, what a state, what a state...







Chorus:

Am           Em
  There's no hole in my head
G                    D
  Accusation: I just ain't the family type
Am                  Em
  Falling short and you've got better plans
G                   D
  Escape artist and you just undermine






    G

 |---------------------------------------------------|
 |---------------------------------------------------|
 |------------------------4-----5-----4-----0--------|
 |---------------------------------------------------|
 |-----2-----2-----2------------------------------2--|
 |--3-----3-----3------3-----3-----3-----3-----3-----|



    C

 |------------------------------------------------------------------|
 |------------------------------------------------------------------|
 |-----------------------------------------11---------11------------|
 |------------------------------------------------------------------|
 |------9------9------9------9------9----------9----------9------9--|
 |--10-----10-----10-----10-----10-----10---------10---------10-----|



    G

 |---------------------------------------------------|
 |---------------------------------------------------|
 |------------------------4-----5-----4-----0--------|
 |---------------------------------------------------|
 |-----2-----2-----2------------------------------2--|
 |--3-----3-----3------3-----3-----3-----3-----3-----|


    C

 |----------------------------------------------------------|
 |----------------------------------------------------------|
 |----------------------------------------------------------|
 |----------------------------------------------------------|
 |------9------9------9------9------9------9------9------9--|
 |--10-----10-----10-----10-----10-----10-----10-----10-----|








Vers:

It was causing an effect
You said you'd kill it, you haven't yet

    C

 |----------------------------------------------------------|
 |----------------------------------------------------------|
 |----------------------------------------------------------|
 |----------------------------------------------------------|
 |------9------9------9------9------9------9------9------9--|
 |--10-----10-----10-----10-----10-----10-----10-----10-----|


Staring at a bed we shared as friends

    G

 |---------------------------------------------------|
 |---------------------------------------------------|
 |---------------------------------------------------|
 |---------------------------------------------------|
 |-----2-----2-----2------2-----2-----2-----2-----2--|
 |--3-----3-----3------3-----3-----3-----3-----3-----|


And you stop smoking just to try for a while

    C

 |---------------------------------------------------|
 |---------------------------------------------------|
 |---------------------------------------------------|
 |---------------------------------------------------|
 |------9------9------9------9----9---9------9---9---|
 |--10-----10-----10-----10-------10--10-----10--10--|


While I provoke your nicotine habit, a habit


    G

 |---------------------------------------------------|
 |---------------------------------------------------|
 |---------------------------------------------------|
 |---------------------------------------------------|
 |-----2-----2-----2------2-----2-----2-----2-----2--|
 |--3-----3-----3------3-----3-----3-----3-----3-----|


Standing holding hands just as friends there's no love


    C

 |----------------------------------------------------------|
 |----------------------------------------------------------|
 |----------------------------------------------------------|
 |----------------------------------------------------------|
 |------9------9------9------9------9------9------9------9--|
 |--10-----10-----10-----10-----10-----10-----10-----10-----|


With no love this world would surely end


    G

 |---------------------------------------------------|
 |---------------------------------------------------|
 |---------------------------------------------------|
 |---------------------------------------------------|
 |-----2-----2-----2------2-----2-----2-----2-----2--|
 |--3-----3-----3------3-----3-----3-----3-----3-----|


The world's end is no place to start life, we'd start a trend


    C

 |----------------------------------------------------------|
 |----------------------------------------------------------|
 |----------------------------------------------------------|
 |----------------------------------------------------------|
 |------9------9------9------9------9------9------9------9--|
 |--10-----10-----10-----10-----10-----10-----10-----10-----|


And I could not forgive you for that


    G

 |---------------------------------------------------|
 |---------------------------------------------------|
 |------------------------4-----5-----4-----0--------|
 |---------------------------------------------------|
 |-----2-----2-----2------------------------------2--|
 |--3-----3-----3------3-----3-----3-----3-----3-----|


What a state

    C

 |----------------------------------------------------------|
 |----------------------------------------------------------|
 |----------------------------------------------------------|
 |----------------------------------------------------------|
 |------9------9------9------9------9------9------9------9--|
 |--10-----10-----10-----10-----10-----10-----10-----10-----|


What a state...


    G

 |---------------------------------------------------|
 |---------------------------------------------------|
 |------------------------4-----5-----4-----0--------|
 |---------------------------------------------------|
 |-----2-----2-----2------------------------------2--|
 |--3-----3-----3------3-----3-----3-----3-----3-----|


What a state


    C

 |----------------------------------------------------------|
 |----------------------------------------------------------|
 |----------------------------------------------------------|
 |----------------------------------------------------------|
 |------9------9------9------9------9------9------9------9--|
 |--10-----10-----10-----10-----10-----10-----10-----10-----|


Why don't you stay?







Chorus:


Am           Em
  There's no hole in my head
G                    D
  Accusation: I just ain't the family type
Am                  Em
  Falling short and you've got better plans
G                   D
  Escape artist and you just undermine





Bridge:

    G               C               G               C

 |--12----10--9-----14----12--10----17----14--12----17----19--|     Lead
 |------------------------------------------------------------|     Guitar
 |--9-----7---6-----11----9---7-----14----11--9-----14----16--|     Tabbed
 |------------------------------------------------------------|     Without
 |------------------------------------------------------------|     Capo
 |------------------------------------------------------------|



(G)
Your father tried to knock some sense into me
          (C)
He goes, "After all, a man is just a man"
(G)
As I recall he thumped your mom bloody hardy and bloody hung
(C)
Parenthood was a belt buckle to him




    G

 |---------------------------------------------------|
 |---------------------------------------------------|
 |------------------------4-----5-----4-----0--------|
 |---------------------------------------------------|
 |-----2-----2-----2------------------------------2--|
 |--3-----3-----3------3-----3-----3-----3-----3-----|


What a state


    C

 |----------------------------------------------------------|
 |----------------------------------------------------------|
 |----------------------------------------------------------|
 |----------------------------------------------------------|
 |------9------9------9------9------9------9------9------9--|
 |--10-----10-----10-----10-----10-----10-----10-----10-----|


Why don't you stay?


    G

 |---------------------------------------------------|
 |---------------------------------------------------|
 |------------------------4-----5-----4-----0--------|
 |---------------------------------------------------|
 |-----2-----2-----2------------------------------2--|
 |--3-----3-----3------3-----3-----3-----3-----3-----|


What a state


    C

 |----------------------------------------------------------|
 |----------------------------------------------------------|
 |----------------------------------------------------------|
 |----------------------------------------------------------|
 |------9------9------9------9------9------9------9------9--|
 |--10-----10-----10-----10-----10-----10-----10-----10-----|


Why don't you stay?

    G

 |---------------------------------------------------|
 |---------------------------------------------------|
 |------------------------4-----5-----4-----0--------|
 |---------------------------------------------------|
 |-----2-----2-----2------------------------------2--|
 |--3-----3-----3------3-----3-----3-----3-----3-----|


What a state


    C

 |----------------------------------------------------------|
 |----------------------------------------------------------|
 |----------------------------------------------------------|
 |----------------------------------------------------------|
 |------9------9------9------9------9------9------9------9--|
 |--10-----10-----10-----10-----10-----10-----10-----10-----|


Why don't you stay?


    G

 |---------------------------------------------------|
 |---------------------------------------------------|
 |------------------------4-----5-----4-----0--------|
 |---------------------------------------------------|
 |-----2-----2-----2------------------------------2--|
 |--3-----3-----3------3-----3-----3-----3-----3-----|


What a state


    C

 |----------------------------------------------------------|
 |----------------------------------------------------------|
 |----------------------------------------------------------|
 |----------------------------------------------------------|
 |------9------9------9------9------9------9------9------9--|
 |--10-----10-----10-----10-----10-----10-----10-----10-----|


Why don't you stay...oh...






Chorus:


Am           Em
  There's no hole in my head
G                    D
  Accusation: I just ain't the family type
Am                  Em
  Falling short and you've got better plans
G                   D
  Escape artist and you just undermine




Am           Em
  There's no hole in my head
G                    D
  Accusation: I just ain't the family type
Am                  Em
  Falling short and you've got better plans
G                   D                             Am
  Escape artist and you just undermine



Outro:


 |----------------------------------|    Lead
 |--14--14--14--14--14--14--14--14--|    Guitar
 |----------------------------------|    Tabbed
 |--11--11--11--11--11--11--11--11--|    Without
 |----------------------------------|    Capo
 |----------------------------------|


 |------------------------------------------------|    Lead
 |--14--12--17--14--12----14--12--17--14--12--10--|    Guitar
 |------------------------------------------------|    Tabbed
 |--11--9---14--11--9-----11--9---14--11--9---7---|    Without
 |------------------------------------------------|    Capo
 |------------------------------------------------|


  G      C


  G      C






     G

 |---------------------------------|
 |---------3-------------3---------|
 |---4--2-----4----4--2-----4--2---|
 |---------------------------------|
 |---------------------------------|
 |---------------------------------|


    C

 |---------------------------------|
 |---------3-------------3---------|
 |---4--2-----4----4--2-----4--2---|
 |---------------------------------|
 |---------------------------------|
 |---------------------------------|






Repeat last part until you end on:

     G

 |---------------------------------|
 |---------3-------------3---------|
 |---4--2-----4----4--2-----4--2---|
 |---------------------------------|
 |---------------------------------|
 |---------------------------------|


    C                                G

 |---------------------------------------|
 |---------3----------------3------------|
 |---4--2-----4--2----4--2-----4--2--0---|
 |---------------------------------------|
 |---------------------------------------|
 |---------------------------------------|
Tap to rate this tab
# A B C D E F G H I J K L M N O P Q R S T U V W X Y Z