Song name
# A B C D E F G H I J K L M N O P Q R S T U V W X Y Z

Toad The Wet Sprocket - Inside tab

Inside  by Toad the Wet Sprocket
transcribed by Mike Nidel  (rdn2b@uva.pcmail.virginia.edu)

the entire song is capoed up to the 2nd fret

the foundation for this song is this chord:
Gsus2/(augmented?)
____________ (capo 2, that makes this actually an A)
| | | | | |
| 1 1 1 | |
| | | | 3 4

this chord will be referred to as G* from here on

(intro)
|--5-5---5-5-5-5---5-5-5-5---5-5-4-2-----------------------|
|--5-5---5-5-5-5---5-5-5-5---5-5-5---5---------------------|
|--4-4---4-4-4-4---4-4-4-4---4-4-4-----4-------------------|
|--4-4---4-4-4-4---4-4-4-4---4-4-2-------------------------|
|--4-4---4-4-4-4---4-4-4-4---4-4---------------------------|
|--2-2---2-2-2-2---2-2-2-2---2-2---------------------------|

|--5-5---5-5-5-5---5-5-5-5---5-5-4-2-----------------------|
|--5-5---5-5-5-5---5-5-5-5---5-5-5---5---------------------|
|--4-4---4-4-4-4---4-4-4-4---4-4-4-----4-------------------|
|--4-4---4-4-4-4---4-4-4-4---4-4-2-------------------------|
|--4-4---4-4-4-4---4-4-4-4---4-4---------------------------|
|--2-2---2-2-2-2---2-2-2-2---2-2---------------------------|

|--5-5---5-5-5-5---5-5-5-5---5-5-4-2-------2----2----------|
|--5-5---5-5-5-5---5-5-5-5---5-5-5---5---2h3----3----------|
|--4-4---4-4-4-4---4-4-4-4---4-4-4-----4---4----2----------|
|--4-4---4-4-4-4---4-4-4-4---4-4-2---------4----4----------|
|--4-4---4-4-4-4---4-4-4-4---4-4-----------2----5----------|
|--2-2---2-2-2-2---2-2-2-2---2-2---------------------------|
Free my heart to feel again free my mind to understand...

|--5-5---5-5-5-5---5-5-5-5---5-5-4-2-------2----2----------|
|--5-5---5-5-5-5---5-5-5-5---5-5-5---5---2h3----3----------|
|--4-4---4-4-4-4---4-4-4-4---4-4-4-----4---4----2----------|
|--4-4---4-4-4-4---4-4-4-4---4-4-2---------4----4----------|
|--4-4---4-4-4-4---4-4-4-4---4-4-----------2----5----------|
|--2-2---2-2-2-2---2-2-2-2---2-2---------------------------|
Pull the blinders from my eyes; let me see these endless skies

|--------2--------------------------2------5-5----4--------|
|--------3-------------------3----3---3----5---5--5--------|
|--------2-----------------2------------2--2------4--------|
|--------4---------------------------------2------2--------|
|--------5---------------------------------4---------------|
|------------------------------------------5---------------|
and drown here where i stand; in the beauty of the land

|---2---2-----5---5---4---2--------------------------------|
|---3-----5---5-------5-----4------------------------------|
|---2-2-------2-2-----4-4-----4----------------------------|
|---4---------2-------2------------------------------------|
|---5---------4--------------------------------------------|
|-------------5--------------------------------------------|
and all  my life;

|----2-------5-------2-------------------------------------|
|----2-------2-2-5---4---4---4h5-4-2-----------------------|
|----2---2---2-------4-------------------------------------|
|----4-------2-------4-4---4-------------------------------|
|----4-4-----4-------2-------------------------------------|
|----2-------5---------------------------------------------|
it lay inside

this next line is uncertain:

C     G/B     G     Em     D
for all my life

G*
Tear this anger from my soul
        D               Am
Wash me clean and leave me whole
C
Leave me higher
G*
Work my hands to make them strong
         D             Am
Lift my arms to carry on
C
That anywhere I go
   G       D
To never be alone

(repeat chorus)
Am                  D
We were always leaving
Am                    D
Since we stopped breathing
Am         G     
And running back no wonder
C        D           G*
We are torn asunder
(solo- should i try and tab it?)

C   G   D     Em   G   A
C   G   Em   D

|------2-------5-------2------|
|--------5-------5-------5----|
|----2-------2-------4-----4--|
|-----------------2-----------|
|--5--------------------------|
|----------5------------------|
To give me life,
Em     G     A
to give me life

outro


 
Tap to rate this tab
# A B C D E F G H I J K L M N O P Q R S T U V W X Y Z